PrimaNota.ru - самый крупный в мире бесплатный архив песенных текстов, аккордов, табулатур и нот


Silverstein - In Silent Seas We Drown - таба, бас-таба, видео

Регистрация Запомнить меня
Войти через:  Facebook Google Twitter Vk Yandex Mail.ru

Silverstein - In Silent Seas We Drown - таба, бас-таба, видео

Печатать
Просмотров: 100
Tabbed by: Joshua Garcia (joshuag523@aol.com)

Tabs for the song: In Silent Seas We Drown by Silverstein
Please rate and let me know if you have any corrections. Thank you.


**For my tab of the whole album, go here:
http://tabs.ultimate-guitar.com/s/silverstein
/this_is_how_the_wind_shifts_album_tab.htm **


Tuning: Drop C# (C# G C# F# A# D#)


Intro
Guitar 1:
D#||-------------------------------------|
A#||-----------------4b5~----------------|
F#||-----------------4b5~----------------|
C#||--3-0-2---3-0-2-------3-0-2---3-0-2--|
G#||--3-0-2---3-0-2-------3-0-2---3-0-2--|
C#||--3-0-2---3-0-2-------3-0-2---3-0-2--|


Guitar 1/2:
D#||---------|
A#||---------|
F#||---------|
C#||--x-x-x--|
G#||--x-x-x--|
C#||--x-x-x--|



Riff
Guitar 1/2:
D#||--------------------------------------------|-------------------------------------------|
A#||-----------------4b5~-----------------------|-----------------4b5~----------------------|
F#||-----------------4b5~-----------------------|-----------------4b5~----------------------|
C#||--3-0-2---3-0-2-------3-0-2---3-0-2--x-x-x--|--3-0-2---3-0-2-------3-0-2---x-x---x---x--|
G#||--3-0-2---3-0-2-------3-0-2---3-0-2--x-x-x--|--3-0-2---3-0-2-------3-0-2---x-x---x---x--|
C#||--3-0-2---3-0-2-------3-0-2---3-0-2--x-x-x--|--3-0-2---3-0-2-------3-0-2---x-x---x---x--|



Verse
Guitar 1:
D#||------------------------------------------------------------------|
A#||------------------------------------------------------------------|
F#||-------7---/10\7-------7---/10\7-------7---/10\7-------7---/10\7--|
C#||-------x---/x-\x-------x---/x-\x-------x---/x-\x-------x---/x-\x--|
G#||--000--5---/8-\5--000--5---/8-\5--000--5---/8-\5--000--5---/8-\5--|
C#||--000-------------000-------------000-------------000-------------|


Guitar 2:
D#||------------------------------------------------------------------|
A#||------------------------------------------------------------------|
F#||------------------------------------------------------------------|
C#||------------------------------------------------------------------|
G#||--000-------------000-------------000-------------000-------------|
C#||--000-------------000-------------000-------------000-------------|



Guitar 1:
D#||------------------------------------------------------------------------|
A#||------------------------------------------------------------------------|
F#||--14141414---1414---10101010---1010---12121212---1212---666--9~-b10r9~--|
C#||--x-x-x-x----x-x----x-x-x-x----x-x----x-x-x-x----x-x----xxx-------------|
G#||--12121212---1212---8-8-8-8----8-8----10101010---1010---444-------------|
C#||------------------------------------------------------------------------|


Guitar 2:
D#||-------------------------------------------------|
A#||-------------------------------------------------|
F#||-------------------------------------------------|
C#||--------------------------5555---55---7777---77--|
G#||--3333---33---3333---33---xxxx---xx---4444---44--|
C#||--3333---33---3333---33---2222---22--------------|



Guitar 1:
D#||-------------------------------------------------------------------|
A#||-------------------------------------------------------------------|
F#||-------7---/10\7-------7---/10\7-------7---/10\7-------7---/10\7---|
C#||-------x---/x-\x-------x---/x-\x-------x---/x-\x-------x---/x-\x---|
G#||--000--5---/8-\5--000--5---/8-\5--000--5---/8-\5--000--5---/8-\5---|
C#||--000-------------000-------------000-------------000--------------|


Guitar 2:
D#||-------------------------------------------------------------------|
A#||-------------------------------------------------------------------|
F#||-------10--/14\10------10--/14\10------10--/14\10------10--/14\10--|
C#||-------x---/x-\x-------x---/x-\x-------x---/x-\x-------x---/x-\x---|
G#||--000--8---/12\8--000--8---/12\8--000--8---/12\8--000--8---/12\8---|
C#||--000-------------000-------------000-------------000--------------|



Guitar 1:
D#||----------------------------------------------------------------------------|
A#||----------------------------------------------------------------------------|
F#||--14141414~--1414~--15151515~--1515~--12121212~--1212~--101010--9--h10p9p7--|
C#||--x-x-x-x----x-x----x-x-x-x----x-x----x-x-x-x----x-x----x-x-x---------------|
G#||--12121212~--1212~--13131313~--1313~--10101010~--1010~--8-8-8---------------|
C#||----------------------------------------------------------------------------|


Guitar 2:
D#||--------------------------------------------------|
A#||--------------------------------------------------|
F#||--------------------------------------------------|
C#||--------------------------5555~--55~--7777~--77~--|
G#||--3333~--33~--3333~--33~--xxxx---xx---4444~--44~--|
C#||--3333~--33~--3333~--33~--2222~--22~--------------|



Chorus
Guitar 1:
D#||------------------------------------------------------|
A#||------------------------------------------------------|
F#||--77--7--799--9--910101010--55--5--599--9--910101010--|
C#||--xx--x--xxx--x--xx-x-x-x---xx--x--xxx--x--xx-x-x-x---|
G#||--55--5--577--7--78-8-8-8---33--3--377--7--78-8-8-8---|
C#||------------------------------------------------------|


D#||----------------------------------------------------------------------|
A#||----------------------------------------------------------------------|
F#||--1010--10--101212--12--1214141414--1010--10--101212--12--1214141414--|
C#||--x-x---x---x-x-x---x---x-x-x-x-x---x-x---x---x-x-x---x---x-x-x-x-x---|
G#||--8-8---8---8-1010--10--1012121212--8-8---8---8-1010--10--1012121212--|
C#||----------------------------------------------------------------------|


D#||------------------------------------------------------|
A#||------------------------------------------------------|
F#||--77--7--799--9--910101010--55--5--599--9--910101010--|
C#||--xx--x--xxx--x--xx-x-x-x---xx--x--xxx--x--xx-x-x-x---|
G#||--55--5--577--7--78-8-8-8---33--3--377--7--78-8-8-8---|
C#||------------------------------------------------------|


D#||----------------------------------------------------------------------|
A#||----------------------------------------------------------------------|
F#||--1010--10--101212--12--1214141414--1414--14--141414--14--1414141414--|
C#||--x-x---x---x-x-x---x---x-x-x-x-x---x-x---x---x-x-x---x---x-x-x-x-x---|
G#||--8-8---8---8-1010--10--1012121212--1212--12--121212--12--1012121212--|
C#||----------------------------------------------------------------------|


Guitar 2:
D#||------------------------------------------------------------------------------------------|
A#||------------------------------------------------------------------------------------------|
F#||------------------------------------------------------------------------------------------|
C#||--88--8--888--8--88888--77--7--777--7--77777--00--0--000--0--00000--33--3--333--3--33333--|
G#||--88--8--888--8--88888--77--7--777--7--77777--00--0--000--0--00000--33--3--333--3--33333--|
C#||--88--8--888--8--88888--77--7--777--7--77777--00--0--000--0--00000--33--3--333--3--33333--|


D#||------------------------------------------------------------------------------------------|
A#||------------------------------------------------------------------------------------------|
F#||------------------------------------------------------------------------------------------|
C#||--88--8--888--8--88888--77--7--777--7--77777--00--0--000--0--00000--00--0--000--0--00000--|
G#||--88--8--888--8--88888--77--7--777--7--77777--00--0--000--0--00000--00--0--000--0--00000--|
C#||--88--8--888--8--88888--77--7--777--7--77777--00--0--000--0--00000--00--0--000--0--00000--|



Riff
Guitar 1/2:
D#||---------------------------------------------|
A#||-----------------4b5~------------4~------b5--|
F#||-----------------4b5~------------4~------b5--|
C#||--3-0-2---3-0-2-------3-0-2---x--------------|
G#||--3-0-2---3-0-2-------3-0-2---x--------------|
C#||--3-0-2---3-0-2-------3-0-2---x--------------|



Verse
Guitar 1:
D#||------------------------------------------------------------------|
A#||------------------------------------------------------------------|
F#||-------7---/10\7-------7---/10\7-------7---/10\7-------7---/10\7--|
C#||-------x---/x-\x-------x---/x-\x-------x---/x-\x-------x---/x-\x--|
G#||--000--5---/8-\5--000--5---/8-\5--000--5---/8-\5--000--5---/8-\5--|
C#||--000-------------000-------------000-------------000-------------|


Guitar 2:
D#||------------------------------------------------------------------|
A#||------------------------------------------------------------------|
F#||------------------------------------------------------------------|
C#||------------------------------------------------------------------|
G#||--000-------------000-------------000-------------000-------------|
C#||--000-------------000-------------000-------------000-------------|



Guitar 1:
D#||------------------------------------------------------------------------|
A#||------------------------------------------------------------------------|
F#||--14141414---1414---10101010---1010---12121212---1212---666--9~-b10r9~--|
C#||--x-x-x-x----x-x----x-x-x-x----x-x----x-x-x-x----x-x----xxx-------------|
G#||--12121212---1212---8-8-8-8----8-8----10101010---1010---444-------------|
C#||------------------------------------------------------------------------|


Guitar 2:
D#||-------------------------------------------------|
A#||-------------------------------------------------|
F#||-------------------------------------------------|
C#||--------------------------5555---55---7777---77--|
G#||--3333---33---3333---33---xxxx---xx---4444---44--|
C#||--3333---33---3333---33---2222---22--------------|



Guitar 1:
D#||-------------------------------------------------------------------|
A#||-------------------------------------------------------------------|
F#||-------7---/10\7-------7---/10\7-------7---/10\7-------7---/10\7---|
C#||-------x---/x-\x-------x---/x-\x-------x---/x-\x-------x---/x-\x---|
G#||--000--5---/8-\5--000--5---/8-\5--000--5---/8-\5--000--5---/8-\5---|
C#||--000-------------000-------------000-------------000--------------|


Guitar 2:
D#||-------------------------------------------------------------------|
A#||-------------------------------------------------------------------|
F#||-------10--/14\10------10--/14\10------10--/14\10------10--/14\10--|
C#||-------x---/x-\x-------x---/x-\x-------x---/x-\x-------x---/x-\x---|
G#||--000--8---/12\8--000--8---/12\8--000--8---/12\8--000--8---/12\8---|
C#||--000-------------000-------------000-------------000--------------|



Guitar 1:
D#||----------------------------------------------------------------------------|
A#||----------------------------------------------------------------------------|
F#||--14141414~--1414~--15151515~--1515~--12121212~--1212~--101010--9--h10p9p7--|
C#||--x-x-x-x----x-x----x-x-x-x----x-x----x-x-x-x----x-x----x-x-x---------------|
G#||--12121212~--1212~--13131313~--1313~--10101010~--1010~--8-8-8---------------|
C#||----------------------------------------------------------------------------|


Guitar 2:
D#||--------------------------------------------------|
A#||--------------------------------------------------|
F#||--------------------------------------------------|
C#||--------------------------5555~--55~--7777~--77~--|
G#||--3333~--33~--3333~--33~--xxxx---xx---4444~--44~--|
C#||--3333~--33~--3333~--33~--2222~--22~--------------|



Chorus
Guitar 1:
D#||------------------------------------------------------|
A#||------------------------------------------------------|
F#||--77--7--799--9--910101010--55--5--599--9--910101010--|
C#||--xx--x--xxx--x--xx-x-x-x---xx--x--xxx--x--xx-x-x-x---|
G#||--55--5--577--7--78-8-8-8---33--3--377--7--78-8-8-8---|
C#||------------------------------------------------------|


D#||----------------------------------------------------------------------|
A#||----------------------------------------------------------------------|
F#||--1010--10--101212--12--1214141414--1010--10--101212--12--1214141414--|
C#||--x-x---x---x-x-x---x---x-x-x-x-x---x-x---x---x-x-x---x---x-x-x-x-x---| x2
G#||--8-8---8---8-1010--10--1012121212--8-8---8---8-1010--10--1012121212--|
C#||----------------------------------------------------------------------|


Guitar 2:
D#||------------------------------------------------------------------------------------------|
A#||------------------------------------------------------------------------------------------|
F#||------------------------------------------------------------------------------------------|
C#||--88--8--888--8--88888--77--7--777--7--77777--00--0--000--0--00000--33--3--333--3--33333--| x2
G#||--88--8--888--8--88888--77--7--777--7--77777--00--0--000--0--00000--33--3--333--3--33333--|
C#||--88--8--888--8--88888--77--7--777--7--77777--00--0--000--0--00000--33--3--333--3--33333--|



Bridge
Guitar 1:
D#||---------------------------------------------------------------|
A#||---------------------------------------------------------------|
F#||--7--7--77--7--79--9--99--9--95--5--55--5--510--10--109--9--9--|
C#||---------------------------------------------------------------|
G#||---------------------------------------------------------------|
C#||---------------------------------------------------------------|


D#||----------------------------------------------------------------------------|
A#||----------------------------------------------------------------------------|
F#||--7--7--77--7--79--9--99--9--910--10--1010--10--1010--10--1010101010101010--|
C#||----------------------------------------------------------------------------|
G#||----------------------------------------------------------------------------|
C#||----------------------------------------------------------------------------|


Guitar 2:
D#||------------------------------------------------------------------------------------|
A#||------------------------------------------------------------------------------------|
F#||--15--15--1515--15--1517--17--1717--17--1714--14--1415--14--12--10--10--1012--1410--|
C#||--x---x---x-x---x---x-x---x---x-x---x---x-x---x---x-x---x---x---x---x---x-x---x-x---|
G#||--13--13--1313--13--1315--15--1515--15--1512--12--1213--12--10--8---8---8-10--128---|
C#||------------------------------------------------------------------------------------|


D#||------------------------------------------------------------|
A#||------------------------------------------------------------|
F#||--7--7--77--7--75--5--55--5--57--7--77--7--77--7--77777777--|
C#||--x--x--xx--x--xx--x--xx--x--xx--x--xx--x--xx--x--xxxxxxxx--|
G#||--5--5--55--5--53--3--33--3--35--5--55--5--55--5--55555555--|
C#||------------------------------------------------------------|



Breakdown
Guitar 1:
D#||-------------------------------------------------|
A#||-------------------------------------------------|
F#||-------------------------------------------------|
C#||--0---0---0---0---0---0---0---0------------------| x4
G#||--0---0---0---0---0---0---0---0-----55---5---55--|
C#||--0---0---0---0---0---0---0---0---0----0---0-----|


Guitar 2:
D#||-------------------------------------------------|
A#||-------------------------------------------------|
F#||-------------------------------------------------|
C#||--0---0---0---0---0---0---0---0------------------|
G#||--0---0---0---0---0---0---0---0-----88---8---88--|
C#||--0---0---0---0---0---0---0---0---0----0---0-----|


D#||------------------------------------------------------|
A#||------------------------------------------------------|
F#||------------------------------------------------------|
C#||--0---0---0---0---0---0---0---0-----------------------| x2
G#||--0---0---0---0---0---0---0---0-----1313---13---1212--|
C#||--0---0---0---0---0---0---0---0---0------0----0-------|



Bridge
Guitar 1:
D#||---------------------|
A#||---------------------|
F#||---------------------|
C#||--0~-----------~'7~--|
G#||--0~-----------------|
C#||--0~-----------------|


Guitar 2:
D#||---------------------|
A#||---------------------|
F#||---------------------|
C#||--0~-----------------|
G#||--0~-----------~'9~--|
C#||--0~-----------------|


Guitar 1:
D#||--------------------------------------------|-------------------------------------|
A#||-----------------4b5~-----------------------|-----------------4b5~----------------|
F#||-----------------4b5~-----------------------|-----------------4b5~----------------|
C#||--3-0-2---3-0-2-------3-0-2---3-0-2--x-x-x--|--3-0-2---3-0-2-------3-0-2---3-0-2--|
G#||--3-0-2---3-0-2-------3-0-2---3-0-2--x-x-x--|--3-0-2---3-0-2-------3-0-2---3-0-2--|
C#||--3-0-2---3-0-2-------3-0-2---3-0-2--x-x-x--|--3-0-2---3-0-2-------3-0-2---3-0-2--|


Guitar 2:
D#||--------------------------------------------|-------------------------------------|
A#||--------------------------------------------|-------------------------------------|
F#||--------------------------------------------|---------------'5~-------------------|
C#||--(0~)--------------------------------------|--0----------------------------------|
G#||--(0~)--------------------------------------|--0----------------------------------|
C#||--(0~)--------------------------------------|--0----------------------------------|
                                                   .


Guitar 3 (Dub):
D#||--------------------------------------------|-------------------------------------|
A#||--------------------------------------------|-------------------------------------|
F#||--------------------------------------------|---------------'2~---------'3~-------|
C#||--(0~)--------------------------------------|--0----------------------------------|
G#||--(0~)--------------------------------------|--0----------------------------------|
C#||--(0~)--------------------------------------|--0----------------------------------|
                                                   .



Riff
Guitar 1/2:
D#||--------------------------------------------|-------------------------------------------|
A#||-----------------4b5~-----------------------|-----------------4b5~----------------------|
F#||-----------------4b5~-----------------------|-----------------4b5~----------------------|
C#||--3-0-2---3-0-2-------3-0-2---3-0-2--x-x-x--|--3-0-2---3-0-2-------3-0-2---x-x---x---x--|
G#||--3-0-2---3-0-2-------3-0-2---3-0-2--x-x-x--|--3-0-2---3-0-2-------3-0-2---x-x---x---x--|
C#||--3-0-2---3-0-2-------3-0-2---3-0-2--x-x-x--|--3-0-2---3-0-2-------3-0-2---x-x---x---x--|


D#||-----------------------------------------|-----------------------------------------|
A#||-----------------------------------------|-----------------------------------------|
F#||-----------------------------------------|-----------------------------------------|
C#||--3--0--2-------------3--0--2------------|--3--0--2-------------3--0--2------------|
G#||--3--0--2----5555555--3--0--2------------|--3--0--2----5555555--3--0--2------------|
C#||--3--0--2--0----------3--0--2--xxxxxxxx--|--3--0--2--0----------3--0--2--xxxxxxxx--|



Chorus
Guitar 1:
D#||------------------------------------------------------|
A#||------------------------------------------------------|
F#||--77--7--799--9--910101010--55--5--599--9--910101010--|
C#||--xx--x--xxx--x--xx-x-x-x---xx--x--xxx--x--xx-x-x-x---|
G#||--55--5--577--7--78-8-8-8---33--3--377--7--78-8-8-8---|
C#||------------------------------------------------------|


D#||----------------------------------------------------------------------|
A#||----------------------------------------------------------------------|
F#||--1010--10--101212--12--1214141414--1010--10--101212--12--1214141414--|
C#||--x-x---x---x-x-x---x---x-x-x-x-x---x-x---x---x-x-x---x---x-x-x-x-x---| x2
G#||--8-8---8---8-1010--10--1012121212--8-8---8---8-1010--10--1012121212--|
C#||----------------------------------------------------------------------|


Guitar 2:
D#||------------------------------------------------------------------------------------------|
A#||------------------------------------------------------------------------------------------|
F#||------------------------------------------------------------------------------------------|
C#||--88--8--888--8--88888--77--7--777--7--77777--00--0--000--0--00000--33--3--333--3--33333--| x2
G#||--88--8--888--8--88888--77--7--777--7--77777--00--0--000--0--00000--33--3--333--3--33333--|
C#||--88--8--888--8--88888--77--7--777--7--77777--00--0--000--0--00000--33--3--333--3--33333--|



Bridge
Guitar 1:
D#||---------------------------------------------------------------|
A#||---------------------------------------------------------------|
F#||--7--7--77--7--79--9--99--9--95--5--55--5--510--10--109--9--9--|
C#||---------------------------------------------------------------|
G#||---------------------------------------------------------------|
C#||---------------------------------------------------------------|


D#||--------------------------------|
A#||--------------------------------|
F#||--7--7--77--7--76--6--66--6--6--|
C#||--------------------------------|
G#||--------------------------------|
C#||--------------------------------|


Guitar 2:
D#||------------------------------------------------------------------------------------|
A#||------------------------------------------------------------------------------------|
F#||--15--15--1515--15--1517--17--1717--17--1714--14--1415--14--12--10--10--1012--1410--|
C#||--x---x---x-x---x---x-x---x---x-x---x---x-x---x---x-x---x---x---x---x---x-x---x-x---|
G#||--13--13--1313--13--1315--15--1515--15--1512--12--1213--12--10--8---8---8-10--128---|
C#||------------------------------------------------------------------------------------|


D#||--------------------------------|
A#||--------------------------------|
F#||--7--7--77--7--75--5--55--5--5--|
C#||--x--x--xx--x--xx--x--xx--x--x--|
G#||--5--5--55--5--53--3--33--3--3--|
C#||--------------------------------|



Outro
Guitar 1:
D#||-------------------------------------------------|
A#||-------------------------------------------------|
F#||-------------------------------------------------|
C#||--0---0---0---0---0---0---0---0------------------| x2
G#||--0---0---0---0---0---0---0---0-----55---5---55--|
C#||--0---0---0---0---0---0---0---0---0----0---0-----|


Guitar 2:
D#||-------------------------------------------------|
A#||-------------------------------------------------|
F#||-------------------------------------------------|
C#||--0---0---0---0---0---0---0---0------------------|
G#||--0---0---0---0---0---0---0---0-----88---8---88--|
C#||--0---0---0---0---0---0---0---0---0----0---0-----|


D#||------------------------------------------------------|
A#||------------------------------------------------------|
F#||------------------------------------------------------|
C#||--0---0---0---0---0---0---0---0-----------------------|
G#||--0---0---0---0---0---0---0---0-----1313---13---1212--|
C#||--0---0---0---0---0---0---0---0---0------0----0-------|




Tablature Legend
----------------
 h   - hammer-on
 p   - pull-off
 b   - bend
 r   - release bend
 *   - pinch harmonic
 '   - natural harmonic
 x   - mute note
 .   - palm mute
 /   - slide down
 \   - slide up
Добавлено: 01.10.2013
Другие материалы по этой песне:

Страница создана 01.10.2013
http://primanota.ru/silverstein/in-silent-seas-we-drown-chords.htm
Привет, Гость.
Предлагаем пройти революционный курс по гитаре.
Подарок от PrimaNota.Ru, забирай!