PrimaNota.ru - самый крупный в мире бесплатный архив песенных текстов, аккордов, табулатур и нот


Silverstein - In A Place Of Solace - таба, видео

Регистрация Запомнить меня
Войти через:  Facebook Google Twitter Vk Yandex Mail.ru

Silverstein - In A Place Of Solace - таба, видео

Печатать
Просмотров: 104
Уроки эстрадного вокала в Санкт-Петербурге
Авторы: Silverstein

Tabbed by: Joshua Garcia (joshuag523@aol.com)

Tabs for the song: In A Place Of Solace by Silverstein
Please rate and let me know if you have any corrections. Thank you.


**For my tab of the whole album, go here:
http://tabs.ultimate-guitar.com/s/silverstein
/this_is_how_the_wind_shifts_album_tab.htm **


Tuning: Drop C# (C# G# C# F# A# D#)


Intro
Guitar 1:
D#||--------------------------------------------------|
A#||--------------------------------------------------|
F#||--------------------------------------------------|
C#||--0~--------------------3~--------------0~-----3~-|
G#||--0~--------------------3~--------------0~-----3~-|
C#||--0~--------------------3~--------------0~-----3~-|


Main Riff
Guitar 1:
D#||------0~---0~---0~-------0~---0~---0~--|
A#||------6p5--6p5--6p5------6h8--6h8--5~--|
F#||---------------------------------------|
C#||---------------------------------------| x12
G#||---------------------------------------|
C#||---------------------------------------|


Guitar 2:
D#||---------------------------------------|
A#||---------------------------------------|
F#||---------------------------------------|
C#||--0~-----------------3~----------------| x12
G#||--0~-----------------3~----------------|
C#||--0~-----------------3~----------------|


Guitar 3 (Listen for when to come in):
D#||-----------------|----------|
A#||-----------------|----------|
F#||-----------------|----------|
C#||--'7~~~~~~~(b~r)-|--7~----b-|
G#||-----------------|----------|
C#||-----------------|----------|



Guitar 1:
D#||------------------------------|------------------------------------------|
A#||------------------------------|------------------------------------------|
F#||------------------------------|------------------------------------------|
C#||--8888888888-12--777777777777-|--8888888888-12--101010101010111111111111-|
G#||--xxxxxxxxxx-x---xxxxxxxxxxxx-|--xxxxxxxxxx-x---x-x-x-x-x-x-x-x-x-x-x-x--|
C#||--5555555555-10--333333333333-|--5555555555-10--7-7-7-7-7-7-7-7-7-7-7-7--|


Guitar 1/2:
D#||------------------------------|------------------------------------------|
A#||------------------------------|------------------------------------------|
F#||------------------------------|------------------------------------------|
C#||--8888888888-12--777777777777-|--8888888888-12--101010101010111111111111-| x2
G#||--xxxxxxxxxx-x---xxxxxxxxxxxx-|--xxxxxxxxxx-x---x-x-x-x-x-x-x-x-x-x-x-x--|
C#||--5555555555-10--333333333333-|--5555555555-10--7-7-7-7-7-7-7-7-7-7-7-7--|



D#||------------------------------------------------------------------|
A#||------------------------------------------------------------------|
F#||------------------------------------------------------------------|
C#||------------------------------------------------------------------| x2
G#||------------------------------------------------------------------|
C#||--0-0-0-0-0-0-0-0-0-0-0-0-0-0-0-0-0-0-0-0-0-0-0-0-0-0-0-0-0-0-0-0-|



Collision
Guitar 1:
D#||------0~---0~---0~-------0~---0~---0~--|
A#||------6p5--6p5--6p5------6h8--6h8--5~--|
F#||---------------------------------------|
C#||---------------------------------------| x4
G#||---------------------------------------|
C#||---------------------------------------|


Guitar 2:
D#||---------------------------------------|
A#||---------------------------------------|
F#||---------------------------------------|
C#||--0~-----------------3~----------------| x4
G#||--0~-----------------3~----------------|
C#||--0~-----------------3~----------------|


Guitar 3 (Listen for when to come in):
D#||-----------------|----------|
A#||-----------------|----------|
F#||-----------------|----------|
C#||--'7~~~~~~~(b~r)-|--7~----b-|
G#||-----------------|----------|
C#||-----------------|----------|


Guitar 4:
D#||------------------------------------------------------------------|
A#||------------------------------------------------------------------|
F#||------------------------------------------------------------------|
C#||------------------------------------------------------------------| x4
G#||------------------------------------------------------------------|
C#||--0-0-0-0-0-0-0-0-0-0-0-0-0-0-0-0-3-3-3-3-3-3-3-3-3-3-3-3-3-3-3-3-|



Outro
Guitar 1/2:
D#||---------------------------------------------|-----------------------------------------('7)-|
A#||--6-6----6-6----6-6--------6-6----6-6--------|--6-6----6-6----6-6--------6-6----6-6\--------|
F#||--7-7-77-7-7-77-7-7-777777-7-7-77-7-7-777777-|--7-7-77-7-7-77-7-7-777777-7-7-77-7-7\--------|
C#||---------------------------------------------|----------------------------------------------|
G#||---------------------------------------------|----------------------------------------------|
C#||---------------------------------------------|----------------------------------------------|
          ..     ..     ......     ..     ......         ..     ..     ......     ..





Tablature Legend
----------------
 h   - hammer-on
 p   - pull-off
 b   - bend
 r   - release bend
 *   - pinch harmonic
 '   - natural harmonic
 x   - mute note
 .   - palm mute
 /   - slide down
 \   - slide up
Добавлено: 27.07.2013
Другие материалы по этой песне:
  • Аккорды и текст

Страница создана 16.07.2013
http://primanota.ru/silverstein/in-a-place-of-solace-chords.htm
Привет, Гость.
Предлагаем пройти революционный курс по гитаре.
Подарок от PrimaNota.Ru, забирай!