PrimaNota.ru - самый крупный в мире бесплатный архив песенных текстов, аккордов, табулатур и нот


Silverstein - Heroine - таба, видео

Регистрация Запомнить меня
Войти через:  Facebook Google Twitter Vk Yandex Mail.ru

Silverstein - Heroine - таба, видео

Печатать
Просмотров: 130
Уроки эстрадного вокала в Санкт-Петербурге
-------------------------------------------------------------------------------
                             MY HEROINE (ACOUSTIC) - Silverstein
-------------------------------------------------------------------------------
Tabbed by: Kevin Hawkins 
Email: kheckihawk@yahoo.com

Tuning: Standard

(there are two guitars but it sounds fine like this…)

INTRO A                                                   
e|--------------------------------------------------------|
B|--------------------------------------------------------|
G|----4---0--------------0-------------0-----0-----0------|
D|------5-----5-0----0-5----5-0----0-4---4-----4-----4--0-|
A|----------------3-------------5----------5-----5-------|
E|-0------------------------------------------------------|

INTRO B
e|-------------------------------------------------------------------------|
B|-------------------------------------------------------------------------|
G|-------0--------0-------0-------0--------0-------------------12---0------|
D|---5-----5---5------4-----4---4----12------12----12----12-------12----12-|
A|-3---3-----3------5---5-----5----10---10------10----10----10-------10----|
E|-------------------------------------------------------------------------|

e|--------------------------------------------------------------------------
B|--------------------------------------------------------------------------
G|-------0--------0-------0-------0-----------------------------------------
D|---5-----5---5------4-----4---4---7-7-7-7-7-7-7-7-12-12-12-12-12-12-12-12-
A|-3---3-----3------5---5-----5-----5-5-5-5-5-5-5-5-10-10-10-10-10-10-10-12-
E|--------------------------------------------------------------------------

VERSE
e|-0-0-0-000--0-0-0-000--2-2-2-222--3-2-5-2-3-(00)-------------|
B|-0-0-0-000--1-1-1-111--3-3-3-333--3-3-3-3-3-(33)-------------|
G|-0-0-0-000--0-0-0-000--2-2-2-222--2-2-2-2-2-(22)-------------|
D|-2-2-2-222--2-2-2-222--0-0-0-000--0-0-0-0-0-(00)-------------|
A|-2-2-2-222--3-3-3-333----------------------------------------|
E|-0-0-0-000---------------------------------------------------|

e|-0-0-0-000--0-0-0-000--2-2-2-222--3-3-3-3-3-3---------|
B|-0-0-0-000--1-1-1-111--3-3-3-333--3-3-3-3-3-3---------|
G|-0-0-0-000--0-0-0-000--2-2-2-222--0-0-0-0-0-0---------|
D|-2-2-2-222--2-2-2-222--0-0-0-000--0-0-0-0-0-0---------|
A|-2-2-2-222--3-3-3-333-------------2-2-2-2-2-2---------|
E|-0-0-0-000------------------------3-3-3-2-0-2---------|


CHORUS
e|-0-0-0-0-0-0-0-0-0-0-2-2-2-2-2-2-2-2------|
B|-1-1-1-1-1-1-1-1-1-1-3-3-3-3-3-3-3-3------|
G|-0-0-0-0-0-0-0-0-0-0-2-2-2-2-2-2-2-2------|
D|-2-2-2-2-2-2-2-2-2-2-0-0-0-0-0-0-0-0------|
A|-3-3-3-3-3-3-3-3-3-3----------------------|
E|------------------------------------------|

e|-0-0-0-0-0-0-0-0-0-0-0-0-0-0-0-0--------|
B|-0-0-0-0-0-0-0-0-3-3-3-3-1-1-0-0--------|
G|-0-0-0-0-0-0-0-0-0-0-0-0-0-0-0-0--------|
D|-2-2-2-2-2-2-2-2-2-2-2-2-2-2-2-2--------|
A|-2-2-2-2-2-2-2-2-2-2-2-2----------------|
E|-0-0-0-0-0-0-0-0-0-0-0-0----------------|

e|-0-0-0-0-0-0-0-0-0-0-2-2-2-2-2-2-2-2-----|
B|-1-1-1-1-1-1-1-1-1-1-3-3-3-3-3-3-3-3-----|
G|-0-0-0-0-0-0-0-0-0-0-2-2-2-2-2-2-2-2-----|
D|-2-2-2-2-2-2-2-2-2-2-0-0-0-0-0-0-0-0-----|
A|-3-3-3-3-3-3-3-3-3-3---------------------|
E|-----------------------------------------|

e|-0-0-0-0-0-0-0-0-3-3-3-3-3-3-3-0-----------|
B|-0-0-0-0-0-0-0-0-3-3-3-3-3-3-3-0-----------|
G|-0-0-0-0-0-0-0-0-0-0-0-0-0-0-0-0-----------|
D|-2-2-2-2-2-2-2-2-0-0-0-0-0-0-0-0-----------|
A|-2-2-2-2-2-2-2-2-2-2-2-2-0-0-0-0-----------|
E|-0-0-0-0-0-0-0-0-3-3-3-3-2-2-0-0-----------|

e|-0-0-0-0-0-0-0-0-0-0-2-2-2-2-2-2-2-2------|
B|-1-1-1-1-1-1-1-1-1-1-3-3-3-3-3-3-3-3------|
G|-0-0-0-0-0-0-0-0-0-0-2-2-2-2-2-2-2-2------|
D|-2-2-2-2-2-2-2-2-2-2-0-0-0-0-0-0-0-0------|
A|-3-3-3-3-3-3-3-3-3-3----------------------|
E|------------------------------------------|

e|-0-0-0-0-0-0-0-0-0-0-0-0-0-0-0-0--------|
B|-0-0-0-0-0-0-0-0-3-3-3-3-1-1-0-0--------|
G|-0-0-0-0-0-0-0-0-0-0-0-0-0-0-0-0--------|
D|-2-2-2-2-2-2-2-2-2-2-2-2-2-2-2-2--------|
A|-2-2-2-2-2-2-2-2-2-2-2-2----------------|
E|-0-0-0-0-0-0-0-0-0-0-0-0----------------|

e|-0-0-0-0-0-0-0-0-0-0-2-2-2-2-2-2-2-2------|
B|-1-1-1-1-1-1-1-1-1-1-3-3-3-3-3-3-3-3------|
G|-0-0-0-0-0-0-0-0-0-0-2-2-2-2-2-2-2-2------|
D|-2-2-2-2-2-2-2-2-2-2-0-0-0-0-0-0-0-0------|
A|-3-3-3-3-3-3-3-3-3-3----------------------|
E|------------------------------------------|
                       ........ . .

BRIDGE
e|-3-3-3-3-3-3-3-3--5-5-5-5-5-5-5-5---------|
B|-3-3-3-3-3-3-3-3--5-5-5-5-5-5-5-5---------|
G|-0-0-0-0-0-0-0-0--6-6-6-6-6-6-6-6---------|
D|-0-0-0-0-0-0-0-0--7-7-7-7-7-7-7-7---------|
A|-2-2-2-2-2-2-2-2--7-7-7-7-7-7-7-7---------|
E|-3-3-3-3-3-3-3-3--5-5-5-5-5-5-5-5---------|

e|-0-0-0-0-0-0-0-0-0-0-0-0-0-0-0-0-0-0---|
B|-1-1-1-1-0-0-0-0-3-3-3-3-0-0-0-0-1-3---|
G|-0-0-0-0-0-0-0-0-0-0-0-0-0-0-0-0-0-0---|
D|-2-2-2-2-2-2-2-2-2-2-2-2-2-2-2-2-2-2---|
A|-3-3-3-3-3-3-3-3-3-3-3-3-3-3-3-3-3-3---|
E|---------------------------------------|

e|-3-3-3-3-3-3-3-3--5-5-5-5-5-5-5-5---------|
B|-3-3-3-3-3-3-3-3--5-5-5-5-5-5-5-5---------|
G|-0-0-0-0-0-0-0-0--6-6-6-6-6-6-6-6---------|
D|-0-0-0-0-0-0-0-0--7-7-7-7-7-7-7-7---------|
A|-2-2-2-2-2-2-2-2--7-7-7-7-7-7-7-7---------|
E|-3-3-3-3-3-3-3-3--5-5-5-5-5-5-5-5---------|

e|-0-------0--------3---------------|
B|-1-------0--------3---------------|
G|-0-------0--------0---------------|
D|-2-------2--------2---------------|
A|-3-------3--------3---------------|
E|---------0------------------------|


SONG ORDER
Intro A  4x
Intro B       
Verse
Chorus
Verse
Chorus
Bridge
Intro A  2x
Intro B  2x
Chorus
Verse
(end on Em)




| /  slide up
| \  slide down
| h  hammer-on
| p  pull-off
| ~  vibrato
| +  harmonic
| x  Mute note
============================================================================
Добавлено: 21.04.2012
Другие материалы по этой песне:

Страница создана 21.04.2012
http://primanota.ru/silverstein/heroine-chords.htm
Привет, Гость.
Предлагаем пройти революционный курс по гитаре.
Подарок от PrimaNota.Ru, забирай!