PrimaNota.ru - самый крупный в мире бесплатный архив песенных текстов, аккордов, табулатур и нот


Silverstein - Help - аккорды и текст, бас-таба, видео

Регистрация Запомнить меня
Войти через:  Facebook Google Twitter Vk Yandex Mail.ru

Silverstein - Help - аккорды и текст, бас-таба, видео

Печатать
Просмотров: 669
Уроки эстрадного вокала в Санкт-Петербурге
Help
Silverstein
Silverstein
“Help” (The Beatles cover)
A Shipwreck in the Sand (Bonus Track)

Popularized by The Beatles (1965)
Written by John Lennon and Paul McCartney


Intro:
Bbm              Ab
Help! I need somebody 
F#                Fm
Help! Not just anybody
Ebm
Help! You know I need someone,
Ab (hold)
Help!


Verse 1:
Ab                            Cm
  When I was younger, so much younger than today,
Fm                         C#m     F#  Ab
  I never needed anybody's help in any way.
Ab                                Cm
  But now those days are gone I'm not so self-assured,
Fm                                      C#     F#     Ab
  Now I find I've changed my mind, I've opened up the door.


Chorus:
Bbm                                 Bbm-Ab
Help me if you can I'm feeling down.
      F#                              F#-Fm
And I do appreciate you being 'round.
Ebm
Help me get my feet back on the ground.
          Ab (hold)          Ab
Won't you please please help me.


Verse 2:
Ab                               Cm
  And now my life has changed in oh so many ways,
Fm                          C#m    F#     Ab
  My independence seemed to vanish in the haze.
Ab                         Cm
  But every now and then I feel so insecure,
Fm                                 C#         F#     Ab
  I know that I just need you like I've never done before.


[Repeat Chorus]


[Back to Verse 1]
(Acoustic)
             Ab                        Cm
e|--------------------------|--------------------------|
B|--------4-----------4-----|--------4-----------4-----|
G|-----5-----5-----5-----5--|-----5-----5-----5-----5--|
D|--------------------------|--------------------------|
A|--------------------------|--3-----------3-----------|
E|--4-----------4-----------|--------------------------|
  When I was younger,          so much younger than today,

             Fm                C#    F#       Ab
e|--------------------------|--4--|--4--|--------------|
B|--------------------------|--6--|--4--|-----4--------|
G|--------------------------|--6--|--3--|--------5-----|
D|--3-----1-----3-----1-----|--6--|--4--|--6-----------|
A|-----3-----3-----3-----3--|--4--|--4--|--6-----------|
E|--------------------------|--4--|--2--|--4-----------|
  I never needed anybody's   help in any way.

(distorted)
Ab (hold)                         Cm (hold)
  But now those days are gone I'm not so self-assured,
Fm (hold)                               C#-F#-G#(breakdown)
  Now I find I've changed my mind, I've opened up the door.

[Repeat Chorus]

Coda:
Fm            Ab (break)
(Help me! Help me!!!)
Help me! Help me... Yeah
Добавлено: 16.06.2012
Другие материалы по этой песне:

Страница создана 08.04.2012
http://primanota.ru/silverstein/help-chords.htm
Привет, Гость.
Предлагаем пройти революционный курс по гитаре.
Подарок от PrimaNota.Ru, забирай!