PrimaNota.ru - самый крупный в мире бесплатный архив песенных текстов, аккордов, табулатур и нот


Silverstein - Face Of The Earth - таба, бас-таба, видео

Регистрация Запомнить меня
Войти через:  Facebook Google Twitter Vk Yandex Mail.ru

Silverstein - Face Of The Earth - таба, бас-таба, видео

Печатать
Просмотров: 127
Tabbed by: Joshua Garcia (joshuag523@aol.com)

Tabs for the song: Face of the Earth by Silverstein
Please rate and let me know if you have any corrections. Thank you.


** For my tab of the whole album, go here:
http://tabs.ultimate-guitar.com/s/silverstein/i_am_alive_in_everything_i_touch_album_tab.htm **


Tuning: Drop C# (C# G# C# F# A# D#)


Intro
Guitar 1:
D#||---------------------------------------------------------------------------------|
A#||---------------------------------------------------------------------------------|
F#||---------------------------------------------------------------------------------|
C#||---------------------------------------------------------------------------------|
G#||--7-7-7-7-10-10-10-10-------10--10--10-------------10-10-10-10-------10--10--10--|
C#||----------------------9-9-9------------10-10-10-10-------------7-7-7-------------|


D#||------------------------------------------------------------------------------|
A#||------------------------------------------------------------------------------|
F#||------------------------------------------------------------------------------|
C#||------------------------------------------------------------------7--7--7--7--| x2
G#||--7-7-7-7-10-10-10-10-------10--10--10-------------10-10-10-10-10-7--7--7--7--|
C#||----------------------9-9-9------------10-10-10-10----------------7--7--7--7--|


Guitar 2:
D#||---------------------------------------------------------------------|
A#||--121212121212121212121212121212121212121212121212-1010101010101010--|
F#||---------------------------------------------------------------------|
C#||---------------------------------------------------------------------| x2
G#||---------------------------------------------------------------------|
C#||---------------------------------------------------------------------|


D#||------|
A#||------|
F#||--8~--|
C#||------|
G#||------|
C#||------|



Verse
Guitar 1/2:
D#||---------------------|----------------------|
A#||---------------------|----------------------|
F#||--9-----4-----5---\--|-x-9-----4-----5---\--|
C#||--9-----4-----5---\--|-x-9-----4-----5---\--|
G#||--7-----2-----3---\--|-x-7-----2-----3---\--|
C#||---------------------|----------------------|


D#||---------------------|-------------------------------------|
A#||---------------------|-------------------------------------|
F#||--9-----4-----5---\--|--7-----7-----5~----5~-----5~-----5--|
C#||--9-----4-----5---\--|--7-----7-----5~----5~-----5~-----5--|
G#||--7-----2-----3---\--|--5-----5-----3~----3~-----3~-----3--|
C#||---------------------|-------------------------------------|



Pre-Chorus
Guitar 1/2:
D#||-----------------------------------------------------|
A#||-----------------------------------------------------|
F#||--9-----4-----5--------------------------------------|
C#||--9-----4-----5---5--55---5---5--55---5---5--55---5--|
G#||--7-----2-----3---3--33---3---3--33---3---3--33---3--|
C#||-----------------------------------------------------|
                      .  ..   .   .  ..   .   .  ..   .

Guitar 1:
D#||---------------------------------------------------|
A#||---------------------------------------------------|
F#||--9-----4-----5------------------------------------|
C#||--9-----4-----5------------------------------------|
G#||--7-----2-----3---7--77---7\--7--77---7\--7--77xx--|
C#||-----------------------------------------------xx--|
                      .  ..   .   .  ..   .   .  ..

Guitar 2:
D#||---------------------------------------------------|
A#||---------------------------------------------------|
F#||--9-----4-----5------------------------------------|
C#||--9-----4-----5---5--55---5\--5--55---5\--5--55----|
G#||--7-----2-----3---3--33---3\--3--33---3\--3--33xx--|
C#||-----------------------------------------------xx--|
                      .  ..   .   .  ..   .   .  ..

Guitar 1/2:
D#||-----------------------------------------------------|
A#||-----------------------------------------------------|
F#||--9-----4-----5--------------------------------------|
C#||--9-----4-----5---5--55---5---5--55---5---5--55---5--|
G#||--7-----2-----3---3--33---3---3--33---3---3--33---3--|
C#||-----------------------------------------------------|
                      .  ..   .   .  ..   .   .  ..   .

Guitar 1:
D#||---------------------------------------------------------|
A#||---------------------------------------------------------|
F#||--12----11----12~----14-16~----19----19------------------|
C#||--x-----x-----x------x--x------X-----X--x-x-x-x-x-x-x-x--|
G#||--10----9-----10~----12-14~----17----17-x-x-x-x-x-x-x-x--|
C#||----------------------------------------x-x-x-x-x-x-x-x--|


Guitar 2:
D#||---------------------------------------------------------|
A#||---------------------------------------------------------|
F#||--7-----7-----5------------------------------------------|
C#||--7-----7-----5---5--55---5---5--55---5-x-x-x-x-x-x-x-x--|
G#||--5-----5-----3---3--33---3---3--33---3-x-x-x-x-x-x-x-x--|
C#||----------------------------------------x-x-x-x-x-x-x-x--|
                      .  ..   .   .  ..   .



Chorus
Guitar 1:
D#||------------------------------------------------------------------------------------------------|
A#||------------------------------------------------------------------------------------------------|
F#||--16-16-16-16-16-16-16-16---14-14-14-17-17-17-17---16-16-16-16-16-16-16---11-11-11-12-12-12-12--|
C#||--x--x--x--x--x--x--x--x----x--x--x--x--x--x--x----x--x--x--x--x--x--x----x--x--x--x--x--x--x---|
G#||--14-14-14-14-14-14-14-14---12-12-12-15-15-15-15---14-14-14-14-14-14-14---9--9--9--10-10-10-10--|
C#||------------------------------------------------------------------------------------------------|


D#||---------------------------------------------------------------------------------------------|
A#||---------------------------------------------------------------------------------------------|
F#||--16-16-16-16-16-16-16---14-14-14-17-17-17-17---21-21-21-21-21-21-21---19-19-19-19-19-19-19--|
C#||--x--x--x--x--x--x--x----x--x--x--x--x--x--x----x--x--x--x--x--x--x----x--x--x--x--x--x--x---| x2
G#||--14-14-14-14-14-14-14---12-12-12-15-15-15-15---19-19-19-19-19-19-19---17-17-17-17-17-17-17--|
C#||---------------------------------------------------------------------------------------------|


Guitar 2:
D#||----------------------------------------------------------------------------|
A#||----------------------------------------------------------------------------|
F#||--9-9-9-9-9-9-9-9---12-12-12-12-12-12-12---------------------9-9-9-9-9-7-7--|
C#||--9-9-9-9-9-9-9-9---12-12-12-12-12-12-12---7-7-7-7-7-7-7-7---9-9-9-9-9-7-7--|
G#||--7-7-7-7-7-7-7-7---10-10-10-10-10-10-10---7-7-7-7-7-7-7-7---7-7-7-7-7-5-5--|
C#||-------------------------------------------7-7-7-7-7-7-7-7------------------|


D#||-----------------------------------------------------------------|
A#||-----------------------------------------------------------------|
F#||--------------------------------------------------9-9-9-9-9-7-7--|
C#||--2-2-2-2-2-2-2---5-5-5-5-5-5-5---7-7-7-7-7-7-7---9-9-9-9-9-7-7--| x2
G#||--2-2-2-2-2-2-2---5-5-5-5-5-5-5---7-7-7-7-7-7-7---7-7-7-7-7-5-5--|
C#||--2-2-2-2-2-2-2---5-5-5-5-5-5-5---7-7-7-7-7-7-7------------------|


Guitar 3 (Dub):
D#||---------------------------------------------------------------------------------|
A#||--8-8-8-8-8-8-8-8---12-12-12-12-12-12-12---13-13-13-13-13-13-13---8-8-8-8-8-7-7--|
F#||--x-x-x-x-x-x-x-x---x--x--x--x--x--x--x----x--x--x--x--x--x--x----x-x-x-x-x-x-x--|
C#||--x-x-x-x-x-x-x-x---x--x--x--x--x--x--x----x--x--x--x--x--x--x----x-x-x-x-x-x-x--|
G#||--7-7-7-7-7-7-7-7---10-10-10-10-10-10-10---12-12-12-12-12-12-12---7-7-7-7-7-5-5--|
C#||---------------------------------------------------------------------------------|


D#||-------------------------------------------------------------------------------|
A#||--8-8-8-8-8-8-8---12-12-12-12-12-12-12---13-13-13-13-13-13-13---8-8-8-8-8-7-7--|
F#||--x-x-x-x-x-x-x---x--x--x--x--x--x--x----x--x--x--x--x--x--x----x-x-x-x-x-x-x--|
C#||--x-x-x-x-x-x-x---x--x--x--x--x--x--x----x--x--x--x--x--x--x----x-x-x-x-x-x-x--| x2
G#||--7-7-7-7-7-7-7---10-10-10-10-10-10-10---12-12-12-12-12-12-12---7-7-7-7-7-5-5--|
C#||-------------------------------------------------------------------------------|



Pre-Verse
Guitar 1:
D#||---------------------------------------------------------------------------------|
A#||---------------------------------------------------------------------------------|
F#||---------------------------------------------------------------------------------|
C#||---------------------------------------------------------------------------------|
G#||--7-7-7-7-10-10-10-10-------10--10--10-------------10-10-10-10-------10--10--10--|
C#||----------------------9-9-9------------10-10-10-10-------------7-7-7-------------|


D#||------------------------------------------------------------------------------|
A#||------------------------------------------------------------------------------|
F#||------------------------------------------------------------------------------|
C#||------------------------------------------------------------------7--7--7--7--|
G#||--7-7-7-7-10-10-10-10-------10--10--10-------------10-10-10-10-10-7--7--7--7--|
C#||----------------------9-9-9------------10-10-10-10----------------7--7--7--7--|


Guitar 2:
D#||---------------------------------------------------------------------|
A#||--121212121212121212121212121212121212121212121212-1010101010101010--|
F#||---------------------------------------------------------------------|
C#||---------------------------------------------------------------------|  x2
G#||---------------------------------------------------------------------|
C#||---------------------------------------------------------------------|


D#||------|
A#||------|
F#||--8~--|
C#||------|
G#||------|
C#||------|



Verse
Guitar 1/2:
D#||---------------------|----------------------|
A#||---------------------|----------------------|
F#||--9-----4-----5---\--|-x-9-----4-----5---\--|
C#||--9-----4-----5---\--|-x-9-----4-----5---\--|
G#||--7-----2-----3---\--|-x-7-----2-----3---\--|
C#||---------------------|----------------------|


Guitar 1:
D#||----------------------------------------------------------|
A#||----------------------------------------------------------|
F#||--9----7----9/12-----12~-----12~-----12~-----12~-----12~--|
C#||--x----x----x/x------x-------x-------x-------x-------x----|
G#||--7----5----7/10~----10~-----10~-----10~-----10~-----10~--|
C#||----------------------------------------------------------|


D#||----------------------------------------------------------|
A#||----------------------------------------------------------|
F#||--12----11----12~----14-16~----19----19-------------------|
C#||--x-----x-----x------x--x------X-----X---x-x-x-x-9-7-5-7--|
G#||--10----9-----10~----12-14~----17----17--x-x-x-x----------|
C#||-----------------------------------------x-x-x-x----------|


Guitar 2:
D#||---------------------|-------------------------------------------------|
A#||---------------------|-------------------------------------------------|
F#||--9-----4-----5---\--|--7-----7-----5~----5~-----5~--------------------|
C#||--9-----4-----5---\--|--7-----7-----5~----5~-----5~---x-x-x-x-x-x-x-x--|
G#||--7-----2-----3---\--|--5-----5-----3~----3~-----3~---x-x-x-x-x-x-x-x--|
C#||---------------------|--------------------------------x-x-x-x-x-x-x-x--|



Chorus
Guitar 1:
D#||------------------------------------------------------------------------------------------------|
A#||------------------------------------------------------------------------------------------------|
F#||--16-16-16-16-16-16-16-16---14-14-14-17-17-17-17---16-16-16-16-16-16-16---11-11-11-12-12-12-12--|
C#||--x--x--x--x--x--x--x--x----x--x--x--x--x--x--x----x--x--x--x--x--x--x----x--x--x--x--x--x--x---|
G#||--14-14-14-14-14-14-14-14---12-12-12-15-15-15-15---14-14-14-14-14-14-14---9--9--9--10-10-10-10--|
C#||------------------------------------------------------------------------------------------------|


D#||---------------------------------------------------------------------------------------------|
A#||---------------------------------------------------------------------------------------------|
F#||--16-16-16-16-16-16-16---14-14-14-17-17-17-17---21-21-21-21-21-21-21---19-19-19-19-19-19-19--|
C#||--x--x--x--x--x--x--x----x--x--x--x--x--x--x----x--x--x--x--x--x--x----x--x--x--x--x--x--x---| x2
G#||--14-14-14-14-14-14-14---12-12-12-15-15-15-15---19-19-19-19-19-19-19---17-17-17-17-17-17-17--|
C#||---------------------------------------------------------------------------------------------|


Guitar 2:
D#||----------------------------------------------------------------------------|
A#||----------------------------------------------------------------------------|
F#||--9-9-9-9-9-9-9-9---12-12-12-12-12-12-12---------------------9-9-9-9-9-7-7--|
C#||--9-9-9-9-9-9-9-9---12-12-12-12-12-12-12---7-7-7-7-7-7-7-7---9-9-9-9-9-7-7--|
G#||--7-7-7-7-7-7-7-7---10-10-10-10-10-10-10---7-7-7-7-7-7-7-7---7-7-7-7-7-5-5--|
C#||-------------------------------------------7-7-7-7-7-7-7-7------------------|


D#||-----------------------------------------------------------------|
A#||-----------------------------------------------------------------|
F#||--------------------------------------------------9-9-9-9-9-7-7--|
C#||--2-2-2-2-2-2-2---5-5-5-5-5-5-5---7-7-7-7-7-7-7---9-9-9-9-9-7-7--| x2
G#||--2-2-2-2-2-2-2---5-5-5-5-5-5-5---7-7-7-7-7-7-7---7-7-7-7-7-5-5--|
C#||--2-2-2-2-2-2-2---5-5-5-5-5-5-5---7-7-7-7-7-7-7------------------|


Guitar 3 (Dub):
D#||---------------------------------------------------------------------------------|
A#||--8-8-8-8-8-8-8-8---12-12-12-12-12-12-12---13-13-13-13-13-13-13---8-8-8-8-8-7-7--|
F#||--x-x-x-x-x-x-x-x---x--x--x--x--x--x--x----x--x--x--x--x--x--x----x-x-x-x-x-x-x--|
C#||--x-x-x-x-x-x-x-x---x--x--x--x--x--x--x----x--x--x--x--x--x--x----x-x-x-x-x-x-x--|
G#||--7-7-7-7-7-7-7-7---10-10-10-10-10-10-10---12-12-12-12-12-12-12---7-7-7-7-7-5-5--|
C#||---------------------------------------------------------------------------------|


D#||-------------------------------------------------------------------------------|
A#||--8-8-8-8-8-8-8---12-12-12-12-12-12-12---13-13-13-13-13-13-13---8-8-8-8-8-7-7--|
F#||--x-x-x-x-x-x-x---x--x--x--x--x--x--x----x--x--x--x--x--x--x----x-x-x-x-x-x-x--|
C#||--x-x-x-x-x-x-x---x--x--x--x--x--x--x----x--x--x--x--x--x--x----x-x-x-x-x-x-x--| x2
G#||--7-7-7-7-7-7-7---10-10-10-10-10-10-10---12-12-12-12-12-12-12---7-7-7-7-7-5-5--|
C#||-------------------------------------------------------------------------------|



Bridge
Guitar 1:
D#||-------------------------------------------------------------------|
A#||-------------------------------------------------------------------|
F#||-------------------------------------------------------------------|
C#||-------------------------------------------------------------------|
G#||--7-7-7-7-7-7-7-7-7-7-7-7-7-7-7-7-7-7-7-7-7-7-7-7-7-7-7-7-7-7-7-7--|
C#||-------------------------------------------------------------------|
      . . . . . . . . . . . . . . . . . . . . . . . . . . . . . . . .


D#||-------------------------------------------------------------|
A#||-------------------------------------------------------------|
F#||-------------------------------------------------------------|
C#||-------------------------------------------------------------|
G#||--7-7-7-7-7-7-7-7-7-7-7-7-7-7-7-7-7-7-7-7-7-7-7-7-7-7-7-7-7--|
C#||-------------------------------------------------------------|
      . . . . . . . . . . . . . . . . . . . . . . . . . . . . .



Guitar 1:
D#||-----------------------------------------------------------------------------------|
A#||-----------------------------------------------------------------------------------|
F#||-----------------------------------------------------------------------------------|
C#||-----------------------------------------------------------------------------------|
G#||--7-7-7-7-7-7-7-7-7-7-7-7-9-9-9-9-10-10-10-10-10-10-10-10--------------------------|
C#||----------------------------------------------------------10-10-10-10-10-10-10-10--|
      . . . . . . . . . . . . . . . . .  .  .  .  .  .  .  .  .  .  .  .  .  .  .  .


D#||-------------------------------------------------------------------|
A#||-------------------------------------------------------------------|
F#||-------------------------------------------------------------------|
C#||-------------------------------------------------------------------|
G#||-------------------------------------------------------------------|
C#||--9-9-9-9-9-9-9-9-9-9-9-9-9-9-9-9-9-9-9-9-9-9-9-9-9-9-9-9-9-9-9-9--|
      . . . . . . . . . . . . . . . . . . . . . . . . . . . . . . . .


D#||-------------------------------------------------------------------------------------------|
A#||-------------------------------------------------------------------------------------------|
F#||-------------------------------------------------------------------------------------------|
C#||-------------------------------------------------------------------------------------------|
G#||--10-10-10-10-10-10-10-10-10-10-10-10-10-10-10-10-10-10-10-10-9-9-9-9-10-10-10-10-9-9-9-9--|
C#||-------------------------------------------------------------------------------------------|
      .  .  .  .  .  .  .  .  .  .  .  .  .  .  .  .  .  .  .  .  . . . . .  .  .  .  . . . .


D#||---------------------------------------------------------------------------------------------------|
A#||---------------------------------------------------------------------------------------------------|
F#||---------------------------------------------------------------------------------------------------|
C#||---------------------------------------------------------------------------------------------------|
G#||--10-10-10-10-10-10-10-10-10-10-10-10-10-10-10-10-10-10-10-10-10-10-10-10-10-10-10-10-10-10-10-10--|
C#||---------------------------------------------------------------------------------------------------|
      .  .  .  .  .  .  .  .  .  .  .  .  .  .  .  .  .  .  .  .  .  .  .  .  .  .  .  .  .  .  .  .


Guitar 2:
D#||-------------------------------------------------------------------|
A#||-------------------------------------------------------------------|
F#||--5-5-5-5-5-5-5-5-5-5-5-5-4-4-4-4-2-2-2-2-2-2-2-2------------------|
C#||-------------------------------------------------------------------|
G#||-------------------------------------------------------------------|
C#||--------------------------------------------------5-5-5-5-5-5-5-5--|
      . . . . . . . . . . . . . . . . . . . . . . . . . . . . . . . .


D#||-------------------------------------------------------------------|
A#||-------------------------------------------------------------------|
F#||-------------------------------------------------------------------|
C#||-------------------------------------------------------------------|
G#||-------------------------------------------------------------------|
C#||--2-2-2-2-2-2-2-2-2-2-2-2-2-2-2-2-2-2-2-2-2-2-2-2-2-2-2-2-2-2-2-2--|
      . . . . . . . . . . . . . . . . . . . . . . . . . . . . . . . .


D#||-------------------------------------------------------------------|
A#||-------------------------------------------------------------------|
F#||-------------------------------------------------------------------|
C#||--2-2-2-2-2-2-2-2-2-2-2-2-2-2-2-2-2-2-2-2-2-2-2-2-2-2-2-2-0-0-0-0--|
G#||-------------------------------------------------------------------|
C#||-------------------------------------------------------------------|
      . . . . . . . . . . . . . . . . . . . . . . . . . . . . . . . .


D#||-------------------------------------------------------------------|
A#||-------------------------------------------------------------------|
F#||-------------------------------------------------------------------|
C#||--2-2-2-2-2-2-2-2-2-2-2-2-2-2-2-2-2-2-2-2-2-2-2-2-2-2-2-2-2-2-2-2--|
G#||-------------------------------------------------------------------|
C#||-------------------------------------------------------------------|
      . . . . . . . . . . . . . . . . . . . . . . . . . . . . . . . .



Guitar 1:
D#||-----------------------------------------------------------------------------------|
A#||-----------------------------------------------------------------------------------|
F#||-----------------------------------------------------------------------------------|
C#||-----------------------------------------------------------------------------------|
G#||--7-7-7-7-7-7-7-7-7-7-7-7-9-9-9-9-10-10-10-10-10-10-10-10--------------------------|
C#||----------------------------------------------------------10-10-10-10-10-10-10-10--|
      . . . . . . . . . . . . . . . . .  .  .  .  .  .  .  .  .  .  .  .  .  .  .  .


Guitar 2:
D#||-------------------------------------------------------------------|
A#||-------------------------------------------------------------------|
F#||--5-5-5-5-5-5-5-5-5-5-5-5-4-4-4-4-2-2-2-2-2-2-2-2------------------|
C#||-------------------------------------------------------------------|
G#||-------------------------------------------------------------------|
C#||--------------------------------------------------5-5-5-5-5-5-5-5--|
      . . . . . . . . . . . . . . . . . . . . . . . . . . . . . . . .


Guitar 1/2:
D#||------------------------------|
A#||------------------------------|
F#||------------------------------|
C#||--2-2-2-2-2-2-2-2-2-2-2-2-xx--|
G#||--2-2-2-2-2-2-2-2-2-2-2-2-xx--|
C#||--2-2-2-2-2-2-2-2-2-2-2-2-xx--|
      . . . .



Interlude
Guitar 1:
D#||---------------------------------------------------------------------------------|
A#||--8-8-8-8-8-8-8-8---12-12-12-12-12-12-12---13-13-13-13-13-13-13---8-8-8-8-8-7-7--|
F#||--x-x-x-x-x-x-x-x---x--x--x--x--x--x--x----x--x--x--x--x--x--x----x-x-x-x-x-x-x--|
C#||--x-x-x-x-x-x-x-x---x--x--x--x--x--x--x----x--x--x--x--x--x--x----x-x-x-x-x-x-x--|
G#||--7-7-7-7-7-7-7-7---10-10-10-10-10-10-10---12-12-12-12-12-12-12---7-7-7-7-7-5-5--|
C#||---------------------------------------------------------------------------------|


D#||-------------------------------------------------------------------------------|
A#||--8-8-8-8-8-8-8---12-12-12-12-12-12-12---13-13-13-13-13-13-13---8-8-8-8-8-7-7--|
F#||--x-x-x-x-x-x-x---x--x--x--x--x--x--x----x--x--x--x--x--x--x----x-x-x-x-x-x-x--|
C#||--x-x-x-x-x-x-x---x--x--x--x--x--x--x----x--x--x--x--x--x--x----x-x-x-x-x-x-x--|
G#||--7-7-7-7-7-7-7---10-10-10-10-10-10-10---12-12-12-12-12-12-12---7-7-7-7-7-5-5--|
C#||-------------------------------------------------------------------------------|



Chorus
Guitar 1:
D#||------------------------------------------------------------------------------------------------|
A#||------------------------------------------------------------------------------------------------|
F#||--16-16-16-16-16-16-16-16---14-14-14-17-17-17-17---16-16-16-16-16-16-16---11-11-11-12-12-12-12--|
C#||--x--x--x--x--x--x--x--x----x--x--x--x--x--x--x----x--x--x--x--x--x--x----x--x--x--x--x--x--x---|
G#||--14-14-14-14-14-14-14-14---12-12-12-15-15-15-15---14-14-14-14-14-14-14---9--9--9--10-10-10-10--|
C#||------------------------------------------------------------------------------------------------|


D#||---------------------------------------------------------------------------------------------|
A#||---------------------------------------------------------------------------------------------|
F#||--16-16-16-16-16-16-16---14-14-14-17-17-17-17---21-21-21-21-21-21-21---19-19-19-19-19-19-19--|
C#||--x--x--x--x--x--x--x----x--x--x--x--x--x--x----x--x--x--x--x--x--x----x--x--x--x--x--x--x---| x2
G#||--14-14-14-14-14-14-14---12-12-12-15-15-15-15---19-19-19-19-19-19-19---17-17-17-17-17-17-17--|
C#||---------------------------------------------------------------------------------------------|


Guitar 2:
D#||----------------------------------------------------------------------------|
A#||----------------------------------------------------------------------------|
F#||--9-9-9-9-9-9-9-9---12-12-12-12-12-12-12---------------------9-9-9-9-9-7-7--|
C#||--9-9-9-9-9-9-9-9---12-12-12-12-12-12-12---7-7-7-7-7-7-7-7---9-9-9-9-9-7-7--|
G#||--7-7-7-7-7-7-7-7---10-10-10-10-10-10-10---7-7-7-7-7-7-7-7---7-7-7-7-7-5-5--|
C#||-------------------------------------------7-7-7-7-7-7-7-7------------------|


D#||-----------------------------------------------------------------|
A#||-----------------------------------------------------------------|
F#||--------------------------------------------------9-9-9-9-9-7-7--|
C#||--2-2-2-2-2-2-2---5-5-5-5-5-5-5---7-7-7-7-7-7-7---9-9-9-9-9-7-7--| x2
G#||--2-2-2-2-2-2-2---5-5-5-5-5-5-5---7-7-7-7-7-7-7---7-7-7-7-7-5-5--|
C#||--2-2-2-2-2-2-2---5-5-5-5-5-5-5---7-7-7-7-7-7-7------------------|


Guitar 3 (Dub):
D#||---------------------------------------------------------------------------------|
A#||--8-8-8-8-8-8-8-8---12-12-12-12-12-12-12---13-13-13-13-13-13-13---8-8-8-8-8-7-7--|
F#||--x-x-x-x-x-x-x-x---x--x--x--x--x--x--x----x--x--x--x--x--x--x----x-x-x-x-x-x-x--|
C#||--x-x-x-x-x-x-x-x---x--x--x--x--x--x--x----x--x--x--x--x--x--x----x-x-x-x-x-x-x--|
G#||--7-7-7-7-7-7-7-7---10-10-10-10-10-10-10---12-12-12-12-12-12-12---7-7-7-7-7-5-5--|
C#||---------------------------------------------------------------------------------|


D#||-------------------------------------------------------------------------------|
A#||--8-8-8-8-8-8-8---12-12-12-12-12-12-12---13-13-13-13-13-13-13---8-8-8-8-8-7-7--|
F#||--x-x-x-x-x-x-x---x--x--x--x--x--x--x----x--x--x--x--x--x--x----x-x-x-x-x-x-x--|
C#||--x-x-x-x-x-x-x---x--x--x--x--x--x--x----x--x--x--x--x--x--x----x-x-x-x-x-x-x--| x2
G#||--7-7-7-7-7-7-7---10-10-10-10-10-10-10---12-12-12-12-12-12-12---7-7-7-7-7-5-5--|
C#||-------------------------------------------------------------------------------|



Outro
Guitar 1:
D#||-------------------------------------------------------------------------------------------|
A#||-------------------------------------------------------------------------------------------|
F#||--16-16-16-16-16-16-16-16---14---17-17-17-17-17-16-16-16-16-16-16/24-24-24-24-24-24-23-23--|
C#||--x--x--x--x--x--x--x--x----x----x--x--x--x--x--x--x--x--x--x--x-/x--x--x--x--x--x--x--x---|
G#||--14-14-14-14-14-14-14-14---12---15-15-15-15-15-14-14-14-14-14-14/22-22-22-22-22-22-21-21--|
C#||-------------------------------------------------------------------------------------------|


D#||-------------------------------------------------------------------------------------------|
A#||-------------------------------------------------------------------------------------------|
F#||--16-16-16-16-16-16--14--17-17-17-17-17-17-17-17---21-21-21-21-21-21-21-21---21---21---19--|
C#||--x--x--x--x--x--x---x---x--x--x--x--x--x--x--x----x--x--x--x--x--x--x--x----x----x----x---| x2
G#||--14-14-14-14-14-14--12--15-15-15-15-15-15-15-15---19-19-19-19-19-19-19-19---19---19---17--|
C#||-------------------------------------------------------------------------------------------|


Guitar 2:
D#||---------------------------------|---------------------------------|
A#||---------------------------------|---------------------------------|
F#||--9---------------------9--9--7--|--9---------------------9--9--7--|
C#||--9------2--5-----7-----9--9--7--|--9-----5-5-----7-7-----9--9--7--| x2
G#||--7------2--5-----7-----7--7--5--|--7-----5-5-----7-7-----7--7--5--|
C#||---------2--5-----7--------------|--------5-5-----7-7--------------|


Guitar 3 (Dub):
D#||---------------------------------------------------------------------------------|
A#||--8-8-8-8-8-8-8-8---12-12-12-12-12-12-12---13-13-13-13-13-13-13---8-8-8-8-8-7-7--|
F#||--x-x-x-x-x-x-x-x---x--x--x--x--x--x--x----x--x--x--x--x--x--x----x-x-x-x-x-x-x--|
C#||--x-x-x-x-x-x-x-x---x--x--x--x--x--x--x----x--x--x--x--x--x--x----x-x-x-x-x-x-x--|
G#||--7-7-7-7-7-7-7-7---10-10-10-10-10-10-10---12-12-12-12-12-12-12---7-7-7-7-7-5-5--|
C#||---------------------------------------------------------------------------------|


D#||-------------------------------------------------------------------------------|
A#||--8-8-8-8-8-8-8---12-12-12-12-12-12-12---13-13-13-13-13-13-13---8-8-8-8-8-7-7--|
F#||--x-x-x-x-x-x-x---x--x--x--x--x--x--x----x--x--x--x--x--x--x----x-x-x-x-x-x-x--|
C#||--x-x-x-x-x-x-x---x--x--x--x--x--x--x----x--x--x--x--x--x--x----x-x-x-x-x-x-x--| x2
G#||--7-7-7-7-7-7-7---10-10-10-10-10-10-10---12-12-12-12-12-12-12---7-7-7-7-7-5-5--|
C#||-------------------------------------------------------------------------------|


Guitar 1/2:
D#||---------------------|
A#||---------------------|
F#||--9-----4-----5---\--|
C#||--9-----4-----5---\--|
G#||--7-----2-----3---\--|
C#||---------------------|




Tablature Legend
----------------
 h   hammer-on
 p   pull-off
 b   bend
 pb  pre-bend
 r   release bend
 ~   hold / vibrato
 .   palm mute
 /   slide up
 \   slide down
 *   pinch harmonic
 '   natural harmonic
 x   mute note
 T   tap
Добавлено: 06.12.2015
Другие материалы по этой песне:
  • Аккорды и текст

Страница создана 31.10.2015
http://primanota.ru/silverstein/face-of-earth-chords.htm
Привет, Гость.
Предлагаем пройти революционный курс по гитаре.
Подарок от PrimaNota.Ru, забирай!