PrimaNota.ru - самый крупный в мире бесплатный архив песенных текстов, аккордов, табулатур и нот


Silverstein - Desert Nights - таба, бас-таба, видео

Регистрация Запомнить меня
Войти через:  Facebook Google Twitter Vk Yandex Mail.ru

Silverstein - Desert Nights - таба, бас-таба, видео

Печатать
Просмотров: 93
Tabbed by: Joshua Garcia (joshuag523@aol.com)

Tabs for the song: Desert Nights by Silverstein
Please rate and let me know if you have any corrections. Thank you.


** For my tab of the whole album, go here:
http://tabs.ultimate-guitar.com/s/silverstein/i_am_alive_in_everything_i_touch_album_tab.htm **


Tuning: Drop C# (C# G# C# F# A# D#)


Intro
Guitar 1:
D#||--0-----------------------------|
A#||----1---------------------------|
F#||--------0~----------------------|
C#||------2-3~----------------------|
G#||--------------------------------|
C#||--------------------------------|


Guitar 2:
D#||----------------------0---------|
A#||------------------------1-------|
F#||----------------------------0~--|
C#||--------------------------2-3~--|
G#||--------------------------------|
C#||--------------------------------|



Verse
Guitar 1/2:
D#||--0-----------------------------------|--0-----------------------------------|
A#||----1---------------------------------|----1---------------------------------|
F#||--------0~---0-x-x-5-----4-----4h5-4--|--------0~---0-0-0--------------------|
C#||------2-3~---3-x-x-7-----7-7-7-7---7--|------2-3~---3-3-0-3----x-3----x-3-3--|
G#||---------------------7-7--------------|-------------------3----x-3----x-3-3--|
C#||--------------------------------------|-------------------3----x-3----x-3-3--|
                         . .   . .

D#||--0-----------------------------------|--0-----------------------------------|
A#||----1---------------------------------|----1---------------------------------|
F#||--------0~---0-x-x-5-----4-----4h5-4--|--------0~---0-0-0--------------------|
C#||------2-3~---3-x-x-7-----7-7-7-7---7--|------2-3~---3-3-0-3----x-3----x-3----|
G#||---------------------7-7--------------|-------------------3----x-3----x-3----|
C#||--------------------------------------|-------------------3----x-3----x-3----|
                         . .   . .



Pre-Chorus
Guitar 1/2:
D#||---------------------------------------------------|
A#||---------------------------------------------------|
F#||--2-----0-----4-----0-----5-----------5------------|
C#||--3-3-3-3-3-3-5-5-5-5-5-5-7-7-7-7-7-7-7-7-7-7-7-7--|
G#||--3-3-3-3-3-3-5-5-5-5-5-5-7-7-7-7-7-7-7-7-7-7-7-7--|
C#||--3-3-3-3-3-3-5-5-5-5-5-5-7-7-7-7-7-7-7-7-7-7-7-7--|
        . .   . .   . .   . .   . . . . .   . . . . .

D#||---------------------------------------------------|
A#||---------------------------------------------------|
F#||--2-----0-----4-----0-----5-----------5------------|
C#||--3-3-3-3-3-3-5-5-5-5-5-5-7-7-7-7-7-7-7-7-7-7-7-7--|
G#||--3-3-3-3-3-3-5-5-5-5-5-5-7-7-7-7-7-7-7-7-7-7-7-7--|
C#||--3-3-3-3-3-3-5-5-5-5-5-5-7-7-7-7-7-7-7-7-7-7-7-7--|
        . .   . .   . .   . .   . . . . .   . . .



Chorus
Guitar 1:
D#||-----------------------------------------------------------------|
A#||-----------------------------------------------------------------|
F#||--5---5-5---5-9---9-9-9-10-9-7-9-7-----5-----9---9-9-9-12--------|
C#||--x---x-x---x-x---x-x-x-x--x-x-x-x-----x-----x---x-x-x-x--x-x-x--|
G#||--3---3-3---3-7---7-7-7-8--7-5-7-5-----3-----7---7-7-7-10-x-x-x--|
C#||----------------------------------------------------------x-x-x--|


D#||------------------------------------------------|
A#||------------------------------------------------|
F#||--5---5-5---5-9---9-9-9-10-9-7-9-7---7-5---5-4--|
C#||--x---x-x---x-x---x-x-x-x--x-x-x-x---x-x---x-x--|
G#||--3---3-3---3-7---7-7-7-8--7-5-7-5---5-3---3-2--|
C#||------------------------------------------------|


Guitar 2:
D#||-----------------------------------------------------------------|
A#||-----------------------------------------------------------------|
F#||--5---5-5---5----------------------------------------------------|
C#||--5---5-5---5-3---3-3---3-3-3-3---7---7-7---7-5---5-5---5-3-2-3--|
G#||--3---3-3---3-3---3-3---3-3-3-3---7---7-7---7-5---5-5---5-3-2-3--|
C#||--------------3---3-3---3-3-3-3---7---7-7---7-5---5-5---5-3-2-3--|
                                                              . . .

D#||--------------------------------------------------|
A#||--------------------------------------------------|
F#||--5---5-5---5-------------------------------------|
C#||--5---5-5---5-3---3-3---3-3-3-3---7---7-7---7-5\--|
G#||--3---3-3---3-3---3-3---3-3-3-3---7---7-7---7-5\--|
C#||--------------3---3-3---3-3-3-3---7---7-7---7-5\--|



Verse
Guitar 1/2:
D#||--0-----------------------------------|--0-----------------------------------|
A#||----1---------------------------------|----1---------------------------------|
F#||--------0~---0-x-x-5-----4-----4h5-4--|--------0~---0-0-0--------------------|
C#||------2-3~---3-x-x-7-----7-7-7-7---7--|------2-3~---3-3-0-3----x-3----x-3-3--|
G#||---------------------7-7--------------|-------------------3----x-3----x-3-3--|
C#||--------------------------------------|-------------------3----x-3----x-3-3--|
                         . .   . .

D#||--0-----------------------------------|--0-----------------------------------|
A#||----1---------------------------------|----1---------------------------------|
F#||--------0~---0-x-x-5-----4-----4h5-4--|--------0~---0-0-0--------------------|
C#||------2-3~---3-x-x-7-----7-7-7-7---7--|------2-3~---3-3-0-3----x-3----x-3----|
G#||---------------------7-7--------------|-------------------3----x-3----x-3----|
C#||--------------------------------------|-------------------3----x-3----x-3----|
                         . .   . .



Pre-Chorus
Guitar 1:
D#||------------------------------|
A#||------------------------------|
F#||--2~----0~----4~----0~----5~--|
C#||--3~----------5~----------7~--|
G#||--3~----------5~----------7~--|
C#||--3~----------5~----------7~--|


Guitar 2:
D#||---------------------------------------------------|
A#||---------------------------------------------------|
F#||--------------------------------------5-5-5-5-5-5--|
C#||--3-3-3-3-3-3-5-5-5-5-5-5-7-7-7-7-7-7-7-7-7-7-7-7--|
G#||--3-3-3-3-3-3-5-5-5-5-5-5-7-7-7-7-7-7-7-7-7-7-7-7--|
C#||--3-3-3-3-3-3-5-5-5-5-5-5-7-7-7-7-7-7-7-7-7-7-7-7--|
      . . . . . . . . . . . . . . . . . .



Chorus
Guitar 1:
D#||-----------------------------------------------------------------|
A#||-----------------------------------------------------------------|
F#||--5---5-5---5-9---9-9-9-10-9-7-9-7-----5-----9---9-9-9-12--------|
C#||--x---x-x---x-x---x-x-x-x--x-x-x-x-----x-----x---x-x-x-x--x-x-x--|
G#||--3---3-3---3-7---7-7-7-8--7-5-7-5-----3-----7---7-7-7-10-x-x-x--|
C#||----------------------------------------------------------x-x-x--|


D#||--------------------------------------------------------------------|
A#||--------------------------------------------------------------------|
F#||--5---5-5---5-9---9-9-9-10-9-7-9-7---7-5---5-9---9-9-9-14-12-17-16--|
C#||--x---x-x---x-x---x-x-x-x--x-x-x-x---x-x---x-x---x-x-x-x--x--x--x---|
G#||--3---3-3---3-7---7-7-7-8--7-5-7-5---5-3---3-7---7-7-7-12-10-15-14--|
C#||--------------------------------------------------------------------|


D#||--------------------------------------------------------------------------------|
A#||--------------------------------------------------------------------------------|
F#||--17---17-17-17/19-16---16-16-16-17-16-14-16-14---14-12---12-7---7-7-7----------|
C#||--x----x--x--x-/x--x----x--x--x--x--x--x--x--x----x--x----x--x---x-x-x-5-3-2-3--|
G#||--15---15-15-15/17-14---14-14-14-15-14-12-14-12---12-10---10-5---5-5-5-5-3-2-3--|
C#||-----------------------------------------------------------------------5-3-2-3--|
                                                                           . . . .

D#||------------------------------------------------------|
A#||------------------------------------------------------|
F#||--5---5-7---7-9---9-9-9-10-9-7-9-16---16-16---16-17\--|
C#||--x---x-x---x-x---x-x-x-x--x-x-x-x----x--x----x--x-\--|
G#||--3---3-5---5-7---7-7-7-8--7-5-7-14---14-14---14-15\--|
C#||------------------------------------------------------|


Guitar 2:
D#||-----------------------------------------------------------------|
A#||-----------------------------------------------------------------|
F#||--5---5-5---5----------------------------------------------------|
C#||--5---5-5---5-3---3-3---3-3-3-3---7---7-7---7-5---5-5---5-3-2-3--|
G#||--3---3-3---3-3---3-3---3-3-3-3---7---7-7---7-5---5-5---5-3-2-3--|
C#||--------------3---3-3---3-3-3-3---7---7-7---7-5---5-5---5-3-2-3--|
                                                              . . .

D#||-----------------------------------------------------------------|
A#||-----------------------------------------------------------------|
F#||--5---5-5---5----------------------------------------------------|
C#||--5---5-5---5-3---3-3---3-3-3-3---7---7-7---7-5---5-5---5-5-5-5--|
G#||--3---3-3---3-3---3-3---3-3-3-3---7---7-7---7-5---5-5---5-5-5-5--|
C#||--------------3---3-3---3-3-3-3---7---7-7---7-5---5-5---5-5-5-5--|


D#||-----------------------------------------------------------------|
A#||-----------------------------------------------------------------|
F#||--5---5-5---5----------------------------------------------------|
C#||--5---5-5---5-3---3-3---3-3-3-3---7---7-7---7-5---5-5---5-3-2-3--|
G#||--3---3-3---3-3---3-3---3-3-3-3---7---7-7---7-5---5-5---5-3-2-3--|
C#||--------------3---3-3---3-3-3-3---7---7-7---7-5---5-5---5-3-2-3--|
                                                              . . .

D#||--------------------------------------------------|
A#||--------------------------------------------------|
F#||--5---5-5---5-------------------------------------|
C#||--5---5-5---5-3---3-3---3-3-3-3---7---7-7---7-5\--|
G#||--3---3-3---3-3---3-3---3-3-3-3---7---7-7---7-5\--|
C#||--------------3---3-3---3-3-3-3---7---7-7---7-5\--|



Bridge
Guitar 1:
D#||--0----------|
A#||----1-0---0--|
F#||------2h3-0--|
C#||-------------|
G#||-------------|
C#||-------------|


Guitar 1/2:
D#||--------------------|
A#||--------------------|
F#||--------------------|
C#||--3----3----3----3--|
G#||--3----3----3----3--|
C#||--3----3----3----3--|


Guitar 2:
D#||--0----------|
A#||----1-0---0--|
F#||------2h3-0--|
C#||-------------|
G#||-------------|
C#||-------------|


Guitar 1/2:
D#||----------|
A#||----------|
F#||----------|
C#||--3----3--|
G#||--3----3--|
C#||--3----3--|


Guitar 1:
D#||--0----------|
A#||----1-0---0--|
F#||------2h3-0--|
C#||-------------|
G#||-------------|
C#||-------------|


Guitar 1/2:
D#||----------------------0----------------------------|
A#||------------------------1-0---0--------------------|
F#||--------------------------2h3-0--------------------|
C#||--3----3----3----3---------------3----3----3----3--|
G#||--3----3----3----3---------------3----3----3----3--|
C#||--3----3----3----3---------------3----3----3----3--|


D#||------------------------------------------------|
A#||------------------------------------------------|
F#||--2----0----4----0----5----5----5-5----5-5-5-5--|
C#||--3---------5---------7----7----7-7----7-7-7-7--| x2
G#||--3---------5---------7----7----7-7----7-7-7-7--|
C#||--3---------5---------7----7----7-7----7-7-7-7--|



Guitar 1:
D#||---------------------------------------------------|
A#||---------------------------------------------------|
F#||--5-5-5-5-----5-5-5-5-----7-7-7-7-----7-7-7-7------|
C#||------------7-----------7-----------7-----------7--|
G#||---------------------------------------------------|
C#||---------------------------------------------------|


D#||-----------------------------------------------|
A#||-----------------------------------------------|
F#||--9-9-9-9---9-------------9--10--12--\7---5~---|
C#||--------------7-7-7-7---7----------------------|
G#||-----------------------------------------------|
C#||-----------------------------------------------|


Guitar 2:
D#||---------------------------------------------------|
A#||---------------------------------------------------|
F#||---------------------------------------------------|
C#||--3---3-3-3-3-3---3-3-3-3-5---5-5-5-5-5---5-5-5-5--|
G#||--3---3-3-3-3-3---3-3-3-3-5---5-5-5-5-5---5-5-5-5--|
C#||--3---3-3-3-3-3---3-3-3-3-5---5-5-5-5-5---5-5-5-5--|


D#||---------------------------------------------------|
A#||---------------------------------------------------|
F#||--5-5-5-5-----0-0-0-0-----5-5-5-5-----5-5-5-5-5-5--|
C#||--7-7-7-7---x-7-7-7-7---x-7-7-7-7---x-7-7-7-7-7-7--|
G#||--7-7-7-7---x-7-7-7-7---x-7-7-7-7---x-7-7-7-7-7-7--|
C#||--7-7-7-7---x-7-7-7-7---x-7-7-7-7---x-7-7-7-7-7-7--|



Interlude
Guitar 1:
D#||-----------------------------------------------|
A#||-----------------------------------------------|
F#||--5~----------9~--------10p9-7\5--7----5----9--|
C#||--x-----------x-------------------x----x----x--|
G#||--3~----------7~------------------5----3----7--|
C#||-----------------------------------------------|


D#||-----------------------------------------------|
A#||-----------------------------------------------|
F#||--4~---/5-----7~--------10\9-7/9---9~--5---4~--|
C#||--x-----------x~--------x-\x-x/x---7~------5~--|
G#||--2~----------5~--------8-\7-5/7---7~------5~--|
C#||-----------------------------------------------|


Guitar 2:
D#||----------------------------------------|
A#||----------------------------------------|
F#||--5-----5-------------------------------|
C#||--5-----5-----3~--------7-----7-----5~--| x2
G#||--3-----3-----3~--------7-----7-----5~--|
C#||--------------3~--------7-----7-----5~--|



Chorus / Outro
Guitar 1:
D#||-----------------------------------------------------------------|
A#||-----------------------------------------------------------------|
F#||--5---5-5---5-9---9-9-9-10-9-7-9-7-----5-----9---9-9-9-12--------|
C#||--x---x-x---x-x---x-x-x-x--x-x-x-x-----x-----x---x-x-x-x--x-x-x--|
G#||--3---3-3---3-7---7-7-7-8--7-5-7-5-----3-----7---7-7-7-10-x-x-x--|
C#||----------------------------------------------------------x-x-x--|


D#||--------------------------------------------------------------------|
A#||--------------------------------------------------------------------|
F#||--5---5-5---5-9---9-9-9-10-9-7-9-7---7-5---5-9---9-9-9-14-12-17-16--|
C#||--x---x-x---x-x---x-x-x-x--x-x-x-x---x-x---x-x---x-x-x-x--x--x--x---|
G#||--3---3-3---3-7---7-7-7-8--7-5-7-5---5-3---3-7---7-7-7-12-10-15-14--|
C#||--------------------------------------------------------------------|


D#||--------------------------------------------------------------------------------|
A#||--------------------------------------------------------------------------------|
F#||--17---17-17-17/19-16---16-16-16-17-16-14-16-14---14-12---12-7---7-7-7----------|
C#||--x----x--x--x-/x--x----x--x--x--x--x--x--x--x----x--x----x--x---x-x-x-5-3-2-3--|
G#||--15---15-15-15/17-14---14-14-14-15-14-12-14-12---12-10---10-5---5-5-5-5-3-2-3--|
C#||-----------------------------------------------------------------------5-3-2-3--|
                                                                           . . . .

D#||----------------------------------------------------|
A#||----------------------------------------------------|
F#||--5---5-7---7-9---9-9-9-10-9-7-9-16-----16-----16~--|
C#||--x---x-x---x-x---x-x-x-x--x-x-x-x------x------x----|
G#||--3---3-5---5-7---7-7-7-8--7-5-7-14-----14-----14~--|
C#||----------------------------------------------------|


D#||-------|
A#||-------|
F#||--17~--|
C#||--x----|
G#||--15~--|
C#||-------|


Guitar 2:
D#||-----------------------------------------------------------------|
A#||-----------------------------------------------------------------|
F#||--5---5-5---5----------------------------------------------------|
C#||--5---5-5---5-3---3-3---3-3-3-3---7---7-7---7-5---5-5---5-3-2-3--|
G#||--3---3-3---3-3---3-3---3-3-3-3---7---7-7---7-5---5-5---5-3-2-3--|
C#||--------------3---3-3---3-3-3-3---7---7-7---7-5---5-5---5-3-2-3--|
                                                              . . .

D#||-----------------------------------------------------------------|
A#||-----------------------------------------------------------------|
F#||--5---5-5---5----------------------------------------------------|
C#||--5---5-5---5-3---3-3---3-3-3-3---7---7-7---7-5---5-5---5-5-5-5--|
G#||--3---3-3---3-3---3-3---3-3-3-3---7---7-7---7-5---5-5---5-5-5-5--|
C#||--------------3---3-3---3-3-3-3---7---7-7---7-5---5-5---5-5-5-5--|


D#||-----------------------------------------------------------------|
A#||-----------------------------------------------------------------|
F#||--5---5-5---5----------------------------------------------------|
C#||--5---5-5---5-3---3-3---3-3-3-3---7---7-7---7-5---5-5---5-3-2-3--|
G#||--3---3-3---3-3---3-3---3-3-3-3---7---7-7---7-5---5-5---5-3-2-3--|
C#||--------------3---3-3---3-3-3-3---7---7-7---7-5---5-5---5-3-2-3--|
                                                              . . .

D#||--------------------------------------------------------|
A#||--------------------------------------------------------|
F#||--5---5-5---5-------------------------------------------|
C#||--5---5-5---5-3---3-3---3-3-3-3---7-----7-----5-----7~--|
G#||--3---3-3---3-3---3-3---3-3-3-3---7-----7-----5-----7~--|
C#||--------------3---3-3---3-3-3-3---7-----7-----5-----7~--|




Tablature Legend
----------------
 h   hammer-on
 p   pull-off
 b   bend
 pb  pre-bend
 r   release bend
 ~   hold / vibrato
 .   palm mute
 /   slide up
 \   slide down
 *   pinch harmonic
 '   natural harmonic
 x   mute note
 T   tap
Добавлено: 21.12.2015
Другие материалы по этой песне:
  • Аккорды и текст

Страница создана 31.10.2015
http://primanota.ru/silverstein/desert-nights-chords.htm
Привет, Гость.
Предлагаем пройти революционный курс по гитаре.
Подарок от PrimaNota.Ru, забирай!