PrimaNota.ru - самый крупный в мире бесплатный архив песенных текстов, аккордов, табулатур и нот


Silverstein - Buried At Sea - таба, бас-таба, видео

Регистрация Запомнить меня
Войти через:  Facebook Google Twitter Vk Yandex Mail.ru

Silverstein - Buried At Sea - таба, бас-таба, видео

Печатать
Просмотров: 59
Уроки эстрадного вокала в Санкт-Петербурге
Tabbed by: Joshua Garcia (joshuag523@aol.com)

Tabs for the song: Buried at Sea by Silverstein
Please rate and let me know if you have any corrections. Thank you.


** For my tab of the whole album, go here:
http://tabs.ultimate-guitar.com/s/silverstein/i_am_alive_in_everything_i_touch_album_tab.htm **


Tuning: Drop C# (C# G# C# F# A# D#)


Intro
Guitar 1:
D#||-----------------------------------------------------------------------------|
A#||-----------------------------------------------------------------------------|
F#||-----------------------------------------------------------------------------|
C#||-------------------------------------------------10-14-----------------------|
G#||------10---8---5------------------------10---8-----------10---8-12-12-12-12--|
C#||--0-0----0---0---0-0-0-10-8-0-7-0-3-5-0----0---0-------0----0----------------|


D#||--------------------------------------------------------------------------|
A#||--------------------------------------------------------------------------|
F#||--------------------------------------------------------------------------|
C#||-------------------------------------------------10-14--------------------|
G#||------10---8---5------------------------10---8-----------10---8-12-12-12--|
C#||--0-0----0---0---0-0-0-10-8-0-7-0-3-5-0----0---0-------0----0-------------|



Verse
Guitar 1:
D#||-------------------|
A#||-------------------|
F#||-------------------|
C#||-------------------|
G#||-------------------|
C#||--0----------------|


Guitar 2:
D#||-------------------|
A#||-------------------|
F#||-------------------|
C#||------------3------|
G#||--------5-----5-3--|
C#||--0---0---0--------|


Guitar 1/2:
D#||----------------------------------------------------|
A#||----------------------------------------------------|
F#||----------------------------------------------------|
C#||------------3-------------------5-------------------|
G#||--------5-----5-3-------5---7-8---------8---10-8-7--|
C#||--0---0---0-------5---5---5-------8---8---8---------|
          .   .           .   .           .   .


D#||--------------------------------------------------------------------|
A#||--------------------------------------------------------------------|
F#||--------------------------------------------------------------------|
C#||------------3---------------3-------------------5-------------------| x3
G#||--------5-----5-3-------5-----5-3-------5---7-8---------8---10-8-7--|
C#||--0---0---0-------0---0---0-------5---5---5-------8---8---8---------|
          .   .           .   .           .   .           .   .


Pre-Chorus
Guitar 1:
D#||-------------------------------------------------|--------------------------------------------|
A#||-------------------------------------------------|--------------------------------------------|
F#||--9~----------9---10~--------15-15---14-14---7~--|--9~----------9---10~--------15-15---14-15--|
C#||--10~-------10------12~------x--x----x--x----8~--|--10~-------10------12~------x--x----x--x---|
G#||--10~------10----------------13-13---12-12---8~--|--10~------10----------------13-13---12-13--|
C#||-------------------------------------------------|--------------------------------------------|


D#||----------------|
A#||----------------|
F#||----------------|
C#||--12~------11~--|
G#||--8~-------8~---|
C#||--8~-------8~---|


Guitar 2:
D#||----------------------------------------|-----------------------------------|
A#||----------------------------------------|-----------------------------------|
F#||----------------------------------------|-----------------------------------|
C#||--10~------11~------12-12---10-10---8~--|--10~------11~------12-12---10-10--|
G#||--10~------12~------12-12---10-10---8~--|--10~------12~------12-12---10-10--|
C#||--10~------11~------12-12---10-10---8~--|--10~------11~------12-12---10-10--|


D#||-----------------------------------|
A#||-----------------------------------|
F#||-----------------------------------|
C#||--8---8-8-8-8-8-8-8---8-8-8-8-8-8--|
G#||--8---8-8-8-8-8-8-8---8-8-8-8-8-8--|
C#||--8---8-8-8-8-8-8-8---8-8-8-8-8-8--|
          . . . . . .     . . . . . .


Chorus
Guitar 1:
D#||------------------------------------------------------------------------------------|
A#||------------------------------------------------------------------------------------|
F#||--7---7-14-14-12-12-17-17-14-14-14-14-14-12---10---10-10---10-12---7---7-7---7-7-7--|
C#||--x---x-x--x--x--x--x--x--x--x--x--x--x--x----x----x--x----x--x----x---x-x---x-x-x--|
G#||--5---5-12-12-10-10-15-15-12-12-12-12-12-10---8----8--8----8--10---5---5-5---5-5-5--|
C#||------------------------------------------------------------------------------------|


D#||----------------------------------------------------------------------------------------------|
A#||----------------------------------------------------------------------------------------------|
F#||--7---7-14-14-12-12-17-17-14-14-14-14-14-14-14-15---15-15-15-15-14-12-15---15-15-15-15-14-12--|
C#||--x---x-x--x--x--x--x--x--x--x--x--x--x--x--x--x----x--x--x--x--x--x--x----x--x--x--x--x--x---| x2
G#||--5---5-12-12-10-10-15-15-12-12-12-12-12-12-12-13---13-13-13-13-12-10-13---13-13-13-13-12-10--|
C#||----------------------------------------------------------------------------------------------|


Guitar 2:
D#||---------------------------------------------|
A#||---------------------------------------------|
F#||---------------------------------------------|
C#||--0--00--000--000--000-8--88--888--888--888--|
G#||--0--00--000--000--000-8--88--888--888--888--|
C#||--0--00--000--000--000-8--88--888--888--888--|


D#||----------------------------------------------------------|
A#||----------------------------------------------------------|
F#||----------------------------------------------------------|
C#||--5--55--555--555--555-10--1010--101010-11--1111--111111--|
G#||--5--55--555--555--555-10--1010--101010-12--1212--121212--|
C#||--5--55--555--555--555-10--1010--101010-11--1111--111111--|


D#||---------------------------------------------------------|
A#||---------------------------------------------------------|
F#||---------------------------------------------------------|
C#||--12--1212--121212--121212--121212-8--88--888--888--888--|
G#||--12--1212--121212--121212--121212-8--88--888--888--888--|
C#||--12--1212--121212--121212--121212-8--88--888--888--888--|


D#||----------------------------------------------------------|
A#||----------------------------------------------------------|
F#||----------------------------------------------------------|
C#||--5--55--555--555--555-11--1111--111111-11--1111--111111--|
G#||--5--55--555--555--555-12--1212--121212-12--1212--121212--|
C#||--5--55--555--555--555-11--1111--111111-11--1111--111111--|



Verse
Guitar 1:
D#||--------------------------------------------------------------------|
A#||--------------------------------------------------------------------|
F#||--------------------------------------------------------------------|
C#||------------3---------------3-------------------5-------------------| x4
G#||--------5-----5-3-------5-----5-3-------5---7-8---------8---10-8-7--|
C#||--0---0---0-------0---0---0-------5---5---5-------8---8---8---------|
          .   .           .   .           .   .           .   .

Guitar 2:
D#||-------------------------------------------------------------------|
A#||-------------------------------------------------------------------|
F#||-------------------------------------------------------------------|
C#||-------------------------------------------------------------------| x2
G#||------------5---------------5---------------3-5-6-------5---6-5-3--|
C#||--0---0-8-0---8-7-0---0-8-0---8-7-5---5-8-5-------8---8---8--------|
          .   .           .   .           .   .           .   .

D#||-------------------------------------------------------------------|
A#||-------------------------------------------------------------------|
F#||-------------------------------------------------------------------|
C#||------------7---------------7---------------5-7-8-------7---8-7-5--| x2
G#||--------8-----8-7-------8-----8-7-------8--------------------------|
C#||--0---0---0-------0---0---0-------5---5---5-------8---8---8--------|
          .   .           .   .           .   .           .   .



Pre-Chorus
Guitar 1:
D#||-------------------------------------------------|--------------------------------------------|
A#||-------------------------------------------------|--------------------------------------------|
F#||--9~----------9---10~--------15-15---14-14---7~--|--9~----------9---10~--------15-15---14-15--|
C#||--10~-------10------12~------x--x----x--x----8~--|--10~-------10------12~------x--x----x--x---|
G#||--10~------10----------------13-13---12-12---8~--|--10~------10----------------13-13---12-13--|
C#||-------------------------------------------------|--------------------------------------------|


D#||---------------------------------|
A#||---------------------------------|
F#||---------------------------------|
C#||--12~----------------10----------|
G#||--8~-------12--10-------12-10-8--|
C#||--8~-----------------------------|


Guitar 2:
D#||----------------------------------------|-----------------------------------|
A#||----------------------------------------|-----------------------------------|
F#||----------------------------------------|-----------------------------------|
C#||--10~------11~------12-12---10-10---8~--|--10~------11~------12-12---10-10--|
G#||--10~------12~------12-12---10-10---8~--|--10~------12~------12-12---10-10--|
C#||--10~------11~------12-12---10-10---8~--|--10~------11~------12-12---10-10--|


D#||--------------------------------|
A#||--------------------------------|
F#||--------------------------------|
C#||--8---8-8-8-8-8-8---------------|
G#||--8---8-8-8-8-8-8---\\pick-\\---|
C#||--8---8-8-8-8-8-8----\\slide\\--|
          . . . . . .


Chorus
Guitar 1:
D#||------------------------------------------------------------------------------------|
A#||------------------------------------------------------------------------------------|
F#||--7---7-14-14-12-12-17-17-14-14-14-14-14-12---10---10-10---10-12---7---7-7---7-7-7--|
C#||--x---x-x--x--x--x--x--x--x--x--x--x--x--x----x----x--x----x--x----x---x-x---x-x-x--|
G#||--5---5-12-12-10-10-15-15-12-12-12-12-12-10---8----8--8----8--10---5---5-5---5-5-5--|
C#||------------------------------------------------------------------------------------|


D#||----------------------------------------------------------------------------------------------|
A#||----------------------------------------------------------------------------------------------|
F#||--7---7-14-14-12-12-17-17-14-14-14-14-14-14-14-15---15-15-15-15-14-12-15---15-15-15-15-14-12--|
C#||--x---x-x--x--x--x--x--x--x--x--x--x--x--x--x--x----x--x--x--x--x--x--x----x--x--x--x--x--x---| x2
G#||--5---5-12-12-10-10-15-15-12-12-12-12-12-12-12-13---13-13-13-13-12-10-13---13-13-13-13-12-10--|
C#||----------------------------------------------------------------------------------------------|


D#||--------------------------------------------|
A#||--------------------------------------------|
F#||--15---15-15-15-15-14-12-15---14---14---14--|
C#||--x----x--x--x--x--x--x--x----x----x----x---|
G#||--13---13-13-13-13-12-10-13---12---12---12--|
C#||--------------------------------------------|


Guitar 2:
D#||---------------------------------------------|
A#||---------------------------------------------|
F#||---------------------------------------------|
C#||--0--00--000--000--000-8--88--888--888--888--|
G#||--0--00--000--000--000-8--88--888--888--888--|
C#||--0--00--000--000--000-8--88--888--888--888--|


D#||----------------------------------------------------------|
A#||----------------------------------------------------------|
F#||----------------------------------------------------------|
C#||--5--55--555--555--555-10--1010--101010-11--1111--111111--|
G#||--5--55--555--555--555-10--1010--101010-12--1212--121212--|
C#||--5--55--555--555--555-10--1010--101010-11--1111--111111--|


D#||---------------------------------------------------------|
A#||---------------------------------------------------------|
F#||---------------------------------------------------------|
C#||--12--1212--121212--121212--121212-8--88--888--888--888--|
G#||--12--1212--121212--121212--121212-8--88--888--888--888--|
C#||--12--1212--121212--121212--121212-8--88--888--888--888--|


D#||----------------------------------------------------------|
A#||----------------------------------------------------------|
F#||----------------------------------------------------------|
C#||--5--55--555--555--555-11--1111--111111-11--1111--111111--|
G#||--5--55--555--555--555-12--1212--121212-12--1212--121212--|
C#||--5--55--555--555--555-11--1111--111111-11--1111--111111--|


D#||-------------------------------------|
A#||-------------------------------------|
F#||-------------------------------------|
C#||--11--1111--11111111---11---11---11--|
G#||--12--1212--12121212---12---12---12--|
C#||--11--1111--11111111---11---11---11--|



Breakdown
Guitar 1:
D#||-----------------------------------------------------------------------------|
A#||-----------------------------------------------------------------------------|
F#||-----------------------------------------------------------------------------|
C#||-------------------------------------------------10-14-----------------------| x3
G#||------10---8---5------------------------10---8-----------10---8-12-12-12-12--|
C#||--0-0----0---0---0-0-0-10-8-0-7-0-3-5-0----0---0-------0----0----------------|


D#||--------------------------------------------------------------------------|
A#||--------------------------------------------------------------------------|
F#||--------------------------------------------------------------------------|
C#||-------------------------------------------------10-14--------------------|
G#||------10---8---5------------------------10---8-----------10---8-12-12-12--|
C#||--0-0----0---0---0-0-0-10-8-0-7-0-3-5-0----0---0-------0----0-------------|


Guitar 2:
D#||------------------------------------------------------------------|
A#||------------------------------------------------------------------|
F#||------------------------------------------------------------------|
C#||------------------------------------------------------------------|
G#||--000--0-0--000--0-0------0--0-0--------0----0----0---------------|
C#||--000--0-0--000--0-0------0--0-0--------0----0----0------0h8p5-5--|
      ...  . .  ...  . .      .  . .        .    .    .

D#||-------------------------------------------------------------------|
A#||-------------------------------------------------------------------|
F#||-------------------------------------------------------------------|
C#||-------------------------------------------------------------------|
G#||--000--0-0--000--0-0------0--0-0--------0----0----0----------------|
C#||--000--0-0--000--0-0------0--0-0--------0----0----0------0h8p5-5/--|
      ...  . .  ...  . .      .  . .        .    .    .

D#||------------------------------------------------------------------|
A#||------------------------------------------------------------------|
F#||------------------------------------------------------------------|
C#||------------------------------------------------------------------|
G#||--000--0-0--000--0-0------0--0-0--------0----0----0---------------|
C#||--000--0-0--000--0-0------0--0-0--------0----0----0------0h8p5-5--|
      ...  . .  ...  . .      .  . .        .    .    .

D#||------------------------------------------------------------------|
A#||------------------------------------------------------------------|
F#||------------------------------------------------------------------|
C#||------------------------------------------------------------------|
G#||--000--0-0--000--0-0------0--0-0--------0----0----0---------------|
C#||--000--0-0--000--0-0------0--0-0--------0----0----0------0h5h8-8--|
      ...  . .  ...  . .      .  . .        .    .    .



Pre-Chorus
Guitar 1:
D#||-------------------------------------------------|--------------------------------------------|
A#||-------------------------------------------------|--------------------------------------------|
F#||--9~----------9---10~--------15-15---14-14---7~--|--9~----------9---10~--------15-15---14-15--|
C#||--10~-------10------12~------x--x----x--x----8~--|--10~-------10------12~------x--x----x--x---|
G#||--10~------10----------------13-13---12-12---8~--|--10~------10----------------13-13---12-13--|
C#||-------------------------------------------------|--------------------------------------------|


D#||-------------------------------------------------|
A#||-------------------------------------------------|
F#||-------------------------------------------------|
C#||--12~------11~------12~------14-----14-14-14-14--|
G#||--8~-------8~-------8~-------10-----10-10-10-10--|
C#||--8~-------8~-------8~-------10-----10-10-10-10--|


Guitar 2:
D#||----------------------------------------|-----------------------------------|
A#||----------------------------------------|-----------------------------------|
F#||----------------------------------------|-----------------------------------|
C#||--10~------11~------12-12---10-10---8~--|--10~------11~------12-12---10-10--|
G#||--10~------12~------12-12---10-10---8~--|--10~------12~------12-12---10-10--|
C#||--10~------11~------12-12---10-10---8~--|--10~------11~------12-12---10-10--|


D#||--------------------------------------------------------------------------|
A#||--------------------------------------------------------------------------|
F#||--------------------------------------------------------------------------|
C#||--8---8-8-8-8-8-8-8---8-8-8-8-8-8-8---8-8-8-8-8-8-10---10-10-10-10-10-10--|
G#||--8---8-8-8-8-8-8-8---8-8-8-8-8-8-8---8-8-8-8-8-8-10---10-10-10-10-10-10--|
C#||--8---8-8-8-8-8-8-8---8-8-8-8-8-8-8---8-8-8-8-8-8-10---10-10-10-10-10-10--|
          . . . . . .     . . . . . .     . . . .


Guitar 3 (Dub):
D#||--------------|
A#||--------------|
F#||--------------|
C#||--------------|
G#||--\\pick-\\---|
C#||---\\slide\\--|



Chorus
Guitar 1:
D#||------------------------------------------------------------------------------------|
A#||------------------------------------------------------------------------------------|
F#||--7---7-14-14-12-12-17-17-14-14-14-14-14-12---10---10-10---10-12---7---7-7---7-7-7--|
C#||--x---x-x--x--x--x--x--x--x--x--x--x--x--x----x----x--x----x--x----x---x-x---x-x-x--|
G#||--5---5-12-12-10-10-15-15-12-12-12-12-12-10---8----8--8----8--10---5---5-5---5-5-5--|
C#||------------------------------------------------------------------------------------|


D#||----------------------------------------------------------------------------------------------|
A#||----------------------------------------------------------------------------------------------|
F#||--7---7-14-14-12-12-17-17-14-14-14-14-14-14-14-15---15-15-15-15-14-12-15---15-15-15-15-14-12--|
C#||--x---x-x--x--x--x--x--x--x--x--x--x--x--x--x--x----x--x--x--x--x--x--x----x--x--x--x--x--x---| x2
G#||--5---5-12-12-10-10-15-15-12-12-12-12-12-12-12-13---13-13-13-13-12-10-13---13-13-13-13-12-10--|
C#||----------------------------------------------------------------------------------------------|


D#||--------------------------------------------|
A#||--------------------------------------------|
F#||--15---15-15-15-15-14-12-15---14---14---14--|
C#||--x----x--x--x--x--x--x--x----x----x----x---|
G#||--13---13-13-13-13-12-10-13---12---12---12--|
C#||--------------------------------------------|


Guitar 2:
D#||---------------------------------------------|
A#||---------------------------------------------|
F#||---------------------------------------------|
C#||--0--00--000--000--000-8--88--888--888--888--|
G#||--0--00--000--000--000-8--88--888--888--888--|
C#||--0--00--000--000--000-8--88--888--888--888--|


D#||----------------------------------------------------------|
A#||----------------------------------------------------------|
F#||----------------------------------------------------------|
C#||--5--55--555--555--555-10--1010--101010-11--1111--111111--|
G#||--5--55--555--555--555-10--1010--101010-12--1212--121212--|
C#||--5--55--555--555--555-10--1010--101010-11--1111--111111--|


D#||---------------------------------------------------------|
A#||---------------------------------------------------------|
F#||---------------------------------------------------------|
C#||--12--1212--121212--121212--121212-8--88--888--888--888--|
G#||--12--1212--121212--121212--121212-8--88--888--888--888--|
C#||--12--1212--121212--121212--121212-8--88--888--888--888--|


D#||----------------------------------------------------------|
A#||----------------------------------------------------------|
F#||----------------------------------------------------------|
C#||--5--55--555--555--555-11--1111--111111-11--1111--111111--|
G#||--5--55--555--555--555-12--1212--121212-12--1212--121212--|
C#||--5--55--555--555--555-11--1111--111111-11--1111--111111--|


D#||-------------------------------------|
A#||-------------------------------------|
F#||-------------------------------------|
C#||--11--1111--11111111---11---11---11--|
G#||--12--1212--12121212---12---12---12--|
C#||--11--1111--11111111---11---11---11--|



Outro
Guitar 1/2:
D#||------------------------------------------------------|
A#||------------------------------------------------------|
F#||------------------------------------------------------|
C#||--------------------------------------------------0~--|
G#||--000--0-0--000--0-0------0--0-0--------0----0----0~--|
C#||--000--0-0--000--0-0------0--0-0--------0----0----0~--|
      ...  . .  ...  . .      .  . .        .    .    .




Tablature Legend
----------------
 h   hammer-on
 p   pull-off
 b   bend
 pb  pre-bend
 r   release bend
 ~   hold / vibrato
 .   palm mute
 /   slide up
 \   slide down
 *   pinch harmonic
 '   natural harmonic
 x   mute note
 T   tap
Добавлено: 21.12.2015
Другие материалы по этой песне:
  • Аккорды и текст

Страница создана 31.10.2015
http://primanota.ru/silverstein/buried-at-sea-chords.htm
Привет, Гость.
Предлагаем пройти революционный курс по гитаре.
Подарок от PrimaNota.Ru, забирай!