PrimaNota.ru - самый крупный в мире бесплатный архив песенных текстов, аккордов, табулатур и нот


Silverstein - Bleed no more - таба, видео

Регистрация Запомнить меня
Войти через:  Facebook Google Twitter Vk Yandex Mail.ru

Silverstein - Bleed no more - таба, видео

Печатать
Просмотров: 65


Transcribbed by: Jon Jinx
Tuning: Dropped D

   . Palm Mute
   h Hammer
   ~~~ let ring	                                     



intro					 repeat x4
e-----------------------------------------------------
B------5h6-55555555-----------------------------------
G-----------------------------------------------------
D-0-00--------------8--8-8-8-8-8--8--7--5--7----------
A-0-00--------------8--8-8-8-8-8--8--7--5--7----------
E-0-00--------------8--8-8-8-8-8--8--7--5--7----------
    ..  

verse 00:21	     Figure out strumming, (upamp;down alot)
e-----------------------------------------------------
B-----------------------------------------------------
G-------------------------------------------10--------
D-0--0--8--8--3--3--2--2--2--2--0--0--8--8--10--7-----
A-0--0--8--8--3--3--2--2--2--2--0--0--8--8--8---7-----
E-0--0--8--8--3--3--2--2--2--2--0--0--8--8------7-----
     .     .     .     .     .	   .	 .

intro x4
 
Then
00:57	  repeat x3   
e------------------
B------------------
G--12--10--9--10---
D--x---x---x--x----
A--10--8---7--8----
E------------------

then

e------------------
B------------------
G--12--10--9--17---
D--x---x---x--x----
A--10--8---7--15---
E------------------

intro x4

Pre-Bridge 01:34
e----------------
B----------------
G----------------
D--0~~~----------
A--0~~~----------
E--0~~~----------

Bridge
e-------------------------------------------------
B-------------------------------------------------
G------5--------5---------------------------------
D---3--------3--------3-5-3-2-3--3-5-3-2h3-2------
A--5--5-----5--5-----1-1--------0-0---------------
E-------------------------------------------------

repeat x3 02:26 
e------------------
B------------------
G--12--10--9--10---
D--x---x---x--x----
A--10--8---7--8----
E------------------

e------------------
B------------------
G--12--10--9--17---
D--x---x---x--x----
A--10--8---7--15---
E------------------

intro x4 

e----------------
B----------------
G----------------
D--0~~~----------
A--0~~~----------
E--0~~~----------



Добавлено: 21.01.2014
Другие материалы по этой песне:
  • Аккорды и текст

Страница создана 21.01.2014
http://primanota.ru/silverstein/bleed-no-more-chords.htm
Привет, Гость.
Предлагаем пройти революционный курс по гитаре.
Подарок от PrimaNota.Ru, забирай!