PrimaNota.ru - самый крупный в мире бесплатный архив песенных текстов, аккордов, табулатур и нот


Silverline - Get It Right - таба, бас-таба, видео

Регистрация Запомнить меня
Войти через:  Facebook Google Twitter Vk Yandex Mail.ru

Silverline - Get It Right - таба, бас-таба, видео

Печатать
Просмотров: 177
Уроки эстрадного вокала в Санкт-Петербурге
----------------------------------------------------------------------------
			     Get it Right - Silverline
----------------------------------------------------------------------------
Tabbed by: Flatline222


Tuning: Open Db
(Db Gb Cb Fb Ab db)

	Intro

db|--------------------|
Ab|--------------------|
Fb|-2-2-------5-5------|
Cb|-2-2--3-3--5-5--5-5-|x3
Gb|-o-0--3-3--3-3--5-5-|
Db|------1-1-------3-3-|

	Main Riff
db|-------------------------------|
Ab|-------------------------------|
Fb|-2-2-x----------5-5-x----------|
Cb|-2-2-x-3-3-3-3--5-5-x--5-5-5-3-|x3
Gb|-o-0-x-3-3-3-3--3-3-x--5-5-5-3-|
Db|-------1-1-1-1---------3-3-3-3-| (Please note that the main riff tab only shows the 
strum pattern. The strum pattern is more complicated but easily picked up)


db|--------------|
Ab|--------------|
Fb|-5-5--4-4--2~-|
Cb|-5-5--4-4--x~-|
Gb|-3-3--2-2--3~-|
Db|--------------|

	Verse 1

db|--------------------|
Ab|--------------------|
Fb|-5-5-5-5-5-5-5-5555-|
Cb|-5-5-5-5-5-5-5-5555-|x3
Gb|--------------------|
Db|--------------------|


db|--------------------|
Ab|--------------------|
Fb|-5-5-5-5-5-5-5-5-5~-|
Cb|-5-5-5-5-5-5-5-5-5~-|
Gb|---------------5-3~-|
Db|--------------------|

	Chorus

db|-------------------------------|
Ab|-------------------------------|
Fb|-2-2-x----------5-5-x----------|
Cb|-2-2-x-3-3-3-3--5-5-x--5-5-5-3-|x3
Gb|-o-0-x-3-3-3-3--3-3-x--5-5-5-3-|
Db|-------1-1-1-1---------3-3-3-3-|

db|------------|
Ab|------------|
Fb|-2-2-----5~-|
Cb|-2-2-3-3-5~-|
Gb|-0-0-3-3-3~-|
Db|-----1-1----|

(repeat the entire chourus section twice)

	Verse 2

db|--------------------|
Ab|--------------------|
Fb|-5-5-5-5-5-5-5-5555-|
Cb|-5-5-5-5-5-5-5-5555-|x3
Gb|--------------------|
Db|--------------------|


db|-----------------|
Ab|-----------------|
Fb|-5-5-5-5-5-5-5-5-|
Cb|-5-5-5-5-5-5-5-5-|
Gb|-----------------|
Db|-----------------|

db|--------------------|
Ab|--------------------|
Fb|-2-2-------5-5------|
Cb|-2-2--3-3--5-5--5-5-|x3
Gb|-o-0--3-3--3-3--5-5-|
Db|------1-1-------3-3-|

db|--------------------|
Ab|--------------------|
Fb|-2-2----------------|
Cb|-2-2--3-3-3-3~------|
Gb|-o-0--3-3-3-3~------|
Db|------1-1-1-1~------|
PM           .

	Chorus


db|-------------------------------|
Ab|-------------------------------|
Fb|-2-2-x----------5-5-x----------|
Cb|-2-2-x-3-3-3-3--5-5-x--5-5-5-3-|x3
Gb|-o-0-x-3-3-3-3--3-3-x--5-5-5-3-|
Db|-------1-1-1-1---------3-3-3-3-|

db|------------|
Ab|------------|
Fb|-2-2-----5~-|
Cb|-2-2-3-3-5~-|
Gb|-0-0-3-3-3~-|
Db|-----1-1----|

(repeat the entire chourus section twice)

	Bridge

db|--------------------------------------|
Ab|--------------------------------------|
Fb|-2-2-2-xx----------5-5-5-xx-----------|
Cb|-2-2-2-xx-3-3-3-33-5-5-5-xx--5-5-5-55-|x3
Gb|-o-0-0-xx-3-3-3-33-3-3-3-xx--5-5-5-55-|
Db|----------1-1-1-11-----------3-3-3-33-|

db|-----------------------------------|
Ab|-----------------------------------|
Fb|-2-2-2-xx----------5-5-5-5-5-5-5-5-|
Cb|-2-2-2-xx-3-3-3-33-5-5-5-5-5-5-5-5-|
Gb|-o-0-0-xx-3-3-3-33-3-3-3-3-3-3-3-3-|
Db|----------1-1-1-11-----------------|


db|---|
Ab|---|
Fb|---|
Cb|-5-|x8 (double time)
Gb|-5-|
Db|-3-|
PM  .

	Chorus


db|-------------------------------|
Ab|-------------------------------|
Fb|-2-2-x----------5-5-x----------|
Cb|-2-2-x-3-3-3-3--5-5-x--5-5-5-3-|x3
Gb|-o-0-x-3-3-3-3--3-3-x--5-5-5-3-|
Db|-------1-1-1-1---------3-3-3-3-|

db|------------|
Ab|------------|
Fb|-2-2-----5~-|
Cb|-2-2-3-3-5~-|
Gb|-0-0-3-3-3~-|
Db|-----1-1----|

(repeat the entire chourus section twice)

	Bridge

db|--------------------------------------|
Ab|--------------------------------------|
Fb|-2-2-2-xx----------5-5-5-xx-----------|
Cb|-2-2-2-xx-3-3-3-33-5-5-5-xx--5-5-5-55-|x3
Gb|-o-0-0-xx-3-3-3-33-3-3-3-xx--5-5-5-55-|
Db|----------1-1-1-11-----------3-3-3-33-|

db|-----------------------------------|
Ab|-----------------------------------|
Fb|-2-2-2-xx----------5-5-5-5-5-5-5-5-|
Cb|-2-2-2-xx-3-3-3-33-5-5-5-5-5-5-5-5-|
Gb|-o-0-0-xx-3-3-3-33-3-3-3-3-3-3-3-3-|
Db|----------1-1-1-11-----------------|


db|---|
Ab|---|
Fb|---|
Cb|-5-|x8 (double time)
Gb|-5-|
Db|-3-|
PM  .

	Outro

db|--------------------|
Ab|--------------------|
Fb|-2-2-------5-5------|
Cb|-2-2--3-3--5-5--5-5-|x3
Gb|-o-0--3-3--3-3--5-5-|
Db|------1-1-------3-3-|

db|--------------------|
Ab|--------------------|
Fb|-2-2----------------|
Cb|-2-2--3-3-3-3~------|
Gb|-o-0--3-3-3-3~------|
Db|------1-1-1-1~------|
PM           .

End
Добавлено: 28.06.2012
Другие материалы по этой песне:
  • Аккорды и текст

Страница создана 25.05.2012
http://primanota.ru/silverline/get-it-right-chords.htm
Привет, Гость.
Предлагаем пройти революционный курс по гитаре.
Подарок от PrimaNota.Ru, забирай!