PrimaNota.ru - самый крупный в мире бесплатный архив песенных текстов, аккордов, табулатур и нот


Silverchair - Surfin' Bird - аккорды и текст, таба, видео

Регистрация Запомнить меня
Войти через:  Facebook Google Twitter Vk Yandex Mail.ru

Silverchair - Surfin' Bird - аккорды и текст, таба, видео

Печатать
Просмотров: 160
Авторы музыки: Carl White, Turner Wilson, Al Frazier, Steve Wahrer, Sonny Harris
Авторы текста: Steve Wahrer
Surfin' Bird
Silverchair



Date: Sat, 14 Jul 2001 03:09:42 -0400
From: sander p 
Subject: s/silverchair/surfin_bird.crd

Band: silverchair
Song: Surfin' Bird
Tuning: Standard
Tabbed By: $@NDER

Main Riff
|----------------------------------------|
|----------------------------------------|
|-9-------9------------------------------|
|-9---9-9-9-9-9--------------------------|
|-7-x-9-9-7-9-9--------------------------|
|---x-7-7---7-7--------------------------|
The Biiiiiiiiiiiiiiiird Part
|----------------------------------------|
|----------------------------------------|
|----------------------------------------|
|-7-----------5--------------------------|
|-7-----------5--------------------------|
|-9-----------7--------------------------|
Bass
|----------------------------------------|
|-------5-6-5-------------3-4-3----------|
|---5-8-------8-5-----3-6-------6-3------|
|-7--------------7--5---------------5----|


Добавлено: 08.09.2013
Другие материалы по этой песне:
  • Аккорды и текст

Страница создана 27.02.2012
http://primanota.ru/silverchair/surfin-bird-chords.htm
Привет, Гость.
Предлагаем пройти революционный курс по гитаре.
Подарок от PrimaNota.Ru, забирай!