PrimaNota.ru - самый крупный в мире бесплатный архив песенных текстов, аккордов, табулатур и нот


Silverchair - Nobody Came - текст песни, таба, видео

Регистрация Запомнить меня
Войти через:  Facebook Google Twitter Vk Yandex Mail.ru

Silverchair - Nobody Came - текст песни, таба, видео

Печатать
Просмотров: 118
Авторы музыки: Daniel Johns, Ben Gillies
Авторы текста: Daniel Johns
Nobody Came-Silverchair
Freak Show

Tuning Note:

D A D A B E

Intro: Fig 1.

e-----------------------------------------------------------------
b---------------3-------------------------------3-------5---5-----
a-----0---3-2---0---0---3---0---0-----0---3-0---0---0---3---3---0-
d-2---2---2-2-------2---2---2---2--2--2---2-2-------2-----------2-
a-0-----0-----0---0---0---0---0----0----0-----0---0---0---0---0---
d-----------------------------------------------------------------

Chorus: Fig 2.

e----------------0------------------------------------------------
b----------------0------------------------------3-------5---5-5-3-
a----0---0-------0--0-----------------0---3-0---0---0---3---3-3-0-
d-3----3-----3--------3---3-3-3-0--2--2---2-2-------2-------------
a-3--------3------------3---3-3-0--0----0-----0---0---0-----------
d-3---------------------------------------------------------------

e--------------0--------------------------------------------------
b--------------0--------------------------------------------------
a----0---0-----0---0----------------0----3-0----5----0---0--------
d-3----3---3-----------3-3-3--------0----0-0----0----0---0--------
a-3----------3-------3---3-3-----0--------------------------------
d-3------------------------------0--------------------------------

Interlude:

e-0-0-0-0-0-0-0-0-0-0-0-0-0-0-0-0-0-0-0-0-0-0-0-0-0-0-0-0-0-0-0-0-
b-4-4-4-4-4-4-4-4-4-4-4-4-4-4-4-4-5-5-5-5-5-5-5-5-5-5-5-5-5-5-5-5-
a-0-0-0-0-0-0-0-0-0-0-0-0-0-0-0-0-0-0-0-0-0-0-0-0-0-0-0-0-0-0-0-0-
d-----------------------------------------------------------------
a-----------------------------------------------------------------
d-----------------------------------------------------------------

...to see what i can lose again...

e-----------------------------------------------------------------
b------9---------------------------------9------------------------
a-5-5-------------------------------5-5---------------------------
d-0-0--6----------------------------0-0--6------------------------
a-5-5-------------------------------5-5---------------------------
d-0-0-------------------------------0-0---------------------------

Bridge/Interlude: ...oh...

e-0-0-0-0-0-0-0-0-0-0-0-0-0-0-0---6-6-6-6-6-6-6-6-6-6-6-6-6-6-6---
b-0-0-0-0-0-0-0-0-0-0-0-0-0-0-0---6-6-6-6-6-6-6-6-6-6-6-6-6-6-6---
a-0-0-0-0-0-0-0-0-0-0-0-0-0-0-0-0-6-6-6-6-6-6-6-6-6-6-6-6-6-6-6-0-
d-2-2-2-2-2-2-2-2-2-2-2-2-2-2-2-0-8-8-8-8-8-8-8-8-8-8-8-8-8-8-8-0-
a-0-0-0-0-0-0-0-0-0-0-0-0-0-0-0-0-6-6-6-6-6-6-6-6-6-6-6-6-6-6-6-0-
d-----------------------------------------------------------------

Build up to Solo: w/ wah-wah, trem pick all

e----------------------------------------------/24----------------
b----------------------------------10-----------------------10----
a-----------------------------------------------------------------
d-----------------------------------------------------------------
a-----------------------------------------------------------------
d-----------------------------------------------------------------

Guitar Solo: w/ wah-wah, trem pick all

e-----------------------------------------------------------------
b-----------------------------------------------------------------
a--------7---8---7--8------10---8---7-/12---\7-----/12---\7-------
d-7-----------------------------------------------------------8---
a-----------------------------------------------------------------
d-----------------------------------------------------------------

e-----------------------------------------------------------------
b-----------------------------------------------------------------
a-----------------------------------------------------------------
d-7--8--------10---8---7--\2----/5-----7----\2---/5-------3-------
a-----------------------------------------------------------------
d-----------------------------------------------------------------

e-----------------------------------------------------------------
b-----------------------------------------------------------------
a----------------------/3---4---5---6--7--8---9---12----12b--12---
d-2---0---2-------------------------------------------------------
a-------------3----2----------------------------------------------
d-----------------------------------------------------------------

e-----------------------------------------------------------------
b-----------------------------------------------------------------
a------7---8----7---8-------10--8----7--------7---8--7----8-7-8---
d-7-------------------------------------7-------------------------
a-----------------------------------------------------------------
d-----------------------------------------------------------------

e-----------------------------------------------------------------
b-----------------------------------------------------------------
a---10----10-10-8-12-12-12-12b---12b----12-----10--12b----12------
d-----------------------------------------------------------------
a-----------------------------------------------------------------
d-----------------------------------------------------------------

e-----------------------------------------------------------------
b-----------------------------------------------------------------
a-12b--12-12b---12-12b---12--12b---12b-----8--8----6b--8-8b----8b-
d-----------------------------------------------------------------
a-----------------------------------------------------------------
d-----------------------------------------------------------------

e-----------------------------------------------------------------
b-----------------------------------------------------------------
a-8br-----7------8-----7------8-------7---7-8---3-------2-----0b--
d-----------------------------------------------------------------
a-----------------------------------------------------------------
d-----------------------------------------------------------------

Outro:
e-----------------------------------------------------------------
b---------------3-------------------------------3-------5---------
a-----0---3-2---0---0---3---0---0-----0---3-0---0---0---3---3-----
d-2---2---2-2-------2---2---2---2--2--2---2-2-------2---------2-0-
a-0-----0-----0---0---0---0---0----0----0-----0---0---0---0-------
d-----------------------------------------------------------------

e-----------------------------------------------------------------
b-----------------------------------------------------------------
a-----0---0-------------------------------------------------------
d-3--------------2-------3---3-0-----0-2--------------------------
a-3--------------3-------3-------3-2-----0------------------------
d-3-----3------3-------3---3--------------------------------------

that's all

trevor jones
timmy91199@yahoo.ca
Добавлено: 04.06.2012
Другие материалы по этой песне:

Страница создана 26.04.2012
http://primanota.ru/silverchair/nobody-came-chords.htm
Привет, Гость.
Предлагаем пройти революционный курс по гитаре.
Подарок от PrimaNota.Ru, забирай!