PrimaNota.ru - самый крупный в мире бесплатный архив песенных текстов, аккордов, табулатур и нот


Silverchair - Leave Me Out - аккорды и текст, таба, бас-таба, видео

Регистрация Запомнить меня
Войти через:  Facebook Google Twitter Vk Yandex Mail.ru

Silverchair - Leave Me Out - аккорды и текст, таба, бас-таба, видео

Печатать
Просмотров: 174
Авторы музыки: Daniel Johns, Ben Gillies
Авторы текста: Daniel Johns
Leave Me Out
Silverchair
		   LEAVE ME OUT by silverchair
Transcribed by Braamo (bpsmith@socs.uts.edu.au)

Given the below combinations, the song goes:
Introduction
Verse x 2
Chorus
Verse
Riff (backed by verse baseline)
Chorus
Bridge
Chorus


Introduction chords:

Bb(x13331) / / / / / / /
C(x35553)  / / / / / / /


Verse chords:
   D(1) D(1)     G     F  D(2)  C# C
E-------------------------5-----4--3--|
B-------------------------7-----6--5--|
G-------------------------7-----6--5--|
D--0-----0-------5-----3--7-----6--5--|	x 4
A--0-----0-------5-----3--5-----4--3--|
D--0-----0----0--5--0--3--------------|

then:

C / / / / / / /

   G  G  G  G  F (D) F
E-------------------------|
B-------------------------|
G-------------------------|
D--5--5--5--5--3-----3----|	^ = bend if possible
A--5--5--5--5--3-----3----|
D--5--5--5--5--3--0--3^---|


Chorus Chords:

D(1) / / / / B F (D) F G  x 4
	      |         |
	      |         |
	     \/	        \/
	F    (D)     F    G
E-------------------------------|
B-------------------------------|
G-------------------------------|
D-------3------------3----5-----|
A-------3------------3----5-----|
D-------3-----0------3----5-----|

A / / / / / / /
G# / / / G F


Riff:

E-----------------------------------------|
B--10--10--10--12^--10--12^^--10--9--8----|
G-----------------------------------------|  ^ = bend
D-----------------------------------------|  ^^ = bend further
A-----------------------------------------|
D-----------------------------------------|


Bridge:

D / / / / / / A
D / / / / / / E
D / / / / / / A
D / / / / / / E
G / / / / / / /
F / / / / / / /
G / / / / / / /
G# / / / Bb / Bb A G#	*pause*


Braamo

(bpsmith@socs.uts.edu.au)


Leave Me Out
Silverchair

Drop D   Low to high (DADGBE)

Intro
Bb(8x)C(8x)

Verse 1
D|-0-0---0-5-0-3\--12-11-10----------
A|-0-0---0-5-0-3\--12-11-10----------
D|-0-0---0-5-0-3\--12-11-10----------

Verse 2
G|-------------------------7-6-5-------------------
D|-0-0---0-5-0-3-00--7-6-5-------------------
A|-0-0---0-5-0-3-00--5-4-3-------------------
D|-0-0---0-5-0-3-00----------------------------

Riff 1
G|-5-5-5-5-5-5-5-5------------------------------
D|-5-5-5-5-5-5-5-5--5-5-5-0-3-0-2h3------
A|-3-3-3-3-3-3-3-3--5-5-5-0-3-0-2h3------
D|------------------------5-5-5-0-3-0-2h3------

Chorus
G|-7-7-7-7-7-X-4-------------------------
D|-7-7-7-7-7-X-4--3-0-3h5-5-0-------
A|-5-5-5-5-5-X-2--3-0-3h5-5-0-------
D|---------------------3-0-3h5-5-0-------

play 4 times then this riff

D|-7-7-7-7-7-7-7-7-6-6-6-6-3-5---
A|-7-7-7-7-7-7-7-7-6-6-6-6-3-5---
D|-7-7-7-7-7-7-7-7-6-6-6-6-3-5---
   |____________
    pm

Solo                 )   )
B:--10-10--10-12-12-10-9-8-(4x)

Interlude
D|-0-0-0-5-0-3-0-5-0-8------0-0-0-2-0-2-0-2-0-3--
A|-0-0-0-5-0-3-0-5-0-6------0-0-0-2-0-2-0-2-0-3--
D|-0-0-0-5-0-3-0-5-0---------0-0-0-2-0-2-0-2-0-3--

play twice then this riff
D|-3\5-5-5-5-5-5-5--3\5-5-5-5-5-5-5--1\3-3-3-3-3-3-3--1\3-3-3-3-3-3-3--
A|-3\5-5-5-5-5-5-5--3\5-5-5-5-5-5-5--1\3-3-3-3-3-3-3--1\3-3-3-3-3-3-3--
D|-3\5-5-5-5-5-5-5--3\5-5-5-5-5-5-5--1\3-3-3-3-3-3-3--1\3-3-3-3-3-3-3--

D|-3\5-5-5-5-5-5-5--3\5-5-5-5-5-5-5--5\6-6-6-6-6-6-6--6\8-8-8-8-7-6--
A|-3\5-5-5-5-5-5-5--3\5-5-5-5-5-5-5--5\6-6-6-6-6-6-6--6\8-8-8-8-7-6--
D|-3\5-5-5-5-5-5-5--3\5-5-5-5-5-5-5--5\6-6-6-6-6-6-6--6\8-8-8-8-7-6--

Song Structure
Intro
Verse 1(4x)
Verse 2(4x)
Riff 1
Verse 2(4x)
Riff 1
Chorus
Verse 2(4x)
Solo
Chorus
Interlude
Chorus     
Добавлено: 05.10.2013
Другие материалы по этой песне:

Страница создана 23.02.2012
http://primanota.ru/silverchair/leave-me-out-chords.htm
Привет, Гость.
Предлагаем пройти революционный курс по гитаре.
Подарок от PrimaNota.Ru, забирай!