PrimaNota.ru - самый крупный в мире бесплатный архив песенных текстов, аккордов, табулатур и нот


Silverchair - Israels Son - аккорды и текст, таба, бас-таба, видео

Регистрация Запомнить меня
Войти через:  Facebook Google Twitter Vk Yandex Mail.ru

Silverchair - Israels Son - аккорды и текст, таба, бас-таба, видео

Печатать
Просмотров: 240
Авторы музыки: Daniel Johns
Авторы текста: Daniel Johns
Israels Son
Silverchair
		   ISRAEL'S SON by silverchair
Transcribed by Braamo (bpsmith@socs.uts.edu.au)

Drop D tuning

Repeated baseline on introduction and for verse:

E---------------------------------|
B---------------------------------|
G---------------------------------|
D---------------------------------|
A----------------3-------------5--|
D--0--0--0--(5)-----5--0--(5)-----|  () = hammer

then guitar with distortion:

E------------------|
B------------------|
G------------------|	x 3
D---0--0--0--0-----|
A---0--0--0--0-----|	followed by C power chord
D---0--0--0--0-----|

followed by
    C
E---------|
B---------|
G---5-----|
D---5-----|
A---3---- |
D---------|

Verse (intro baseline repeated)

chorus ("all the pain, I feel ...")
   D  D     C     B  C
E------------------------|
B------------------------|
G-----------5-----4--5---|	x 3
D--0--0-----5-----4--5---|
A--0--0--0--3--0--2--3---|
D--0--0------------------|

then
    Bb	    Eb
E----------------|
B----------------|
G---3------------|
D---3-------1----|
A---1-------1----|
D-----------1----|


Verse again

Chorus (x2)

D chord (000xxx) hold

Introduction baseline again

Verse

Chorus (x2)

Then this is repeated:

E----------------------------------|
B----------------------------------|
G----------------------------------|
D--0--0----------------------------|
A--0--0----------------0--(3)--5---|
D--0--0--5--3--0--(5)----------0---|

The chords to some of this baseline (ie. G F E C D) are
then played as the singing becomes shouting. The song
quickens in pace a bit at this stage and it becomes a
prick to play all the chords in time -
my advice: do ya best!

Braamo

(bpsmith@socs.uts.edu.au)


ISREALS SON by silverchair
tabbed by evan(endgm@ix.netcom.com)

All the other versions i saw sucked

drop d tunning

  pm.pm
E-------------------------------------------
B-------------------------------------------
G---------------------------------------
D----------------------------------------
A---0--0--3-------3---0-----------5---
D---0--0--3h5---------0---3h5-------

i didn't include strumming patter but it's easy to figure out.

chorus

E-----------------------------------------------------------------------
B----------------------------------------------------------------------
G---------------------------------------------------------------------
D-------------------------------------------------------------------
A--0--0--5--3-----0--2--3----1--1--1--1-----6--6--6--6----
D--0--0--5--3-----0--2--3----1--1--1--1-----6--6--6--6----

E------------------------------------------------
B----------------------------------------------------
G--------------------------------------------------
D---------------------------------------------------
A---0--0---5--3--------------3-------5---------
D---0--0---5--3---0--3h5-----------5-----------

email me with any questions.
Evan



ISREALS SON by silverchair
From the album 'Frogstomp'
tabbed by chris(csc5cl@leeds.ac.uk)

drop d tunning.

(0) = parm mute
 \  = slide
intro....

E----------------------------------
B----------------------------------
G----------------------------------
D----------------------------------
A---(0)--(0)--------3------------5-
D---(0)--(0)---3\5-------0--3\5----

chorus.....

E-------------------------------
B-------------------------------
G-------------------------------
D--(0)--(0)--5--3-----0--2--3---  x 3
A--(0)--(0)--5--3-----0--2--3---
D--(0)--(0)--5--3-----0--2--3---

E------------------------------
B------------------------------
G------------------------------
D--1--1--1--1-----6--6--6--6---
A--1--1--1--1-----6--6--6--6---
D--1--1--1--1-----6--6--6--6---

end bit.....

E--------------------------------------
B--------------------------------------
G--------------------------------------
D-------------------------------------- x 3
A---(0)--(0)---5\3-----------3---------
D---(0)--(0)---5\3---0h3--5-----5------

E--------------------------------------
B--------------------------------------
G--------------------------------------
D--------------------------------------
A---(0)--(0)---5\3-----------2h3p2-----
D---(0)--(0)---5\3---0h3--5---------5--

as it gets faster , he stops muting the first two notes of that end bit..

email us with any comments...
enjoy...

Chris.     
Добавлено: 19.10.2013
Другие материалы по этой песне:

Страница создана 06.03.2012
http://primanota.ru/silverchair/israels-son-chords.htm
Привет, Гость.
Предлагаем пройти революционный курс по гитаре.
Подарок от PrimaNota.Ru, забирай!