PrimaNota.ru - самый крупный в мире бесплатный архив песенных текстов, аккордов, табулатур и нот


Silverchair - Frogstomp - таба, видео

Регистрация Запомнить меня
Войти через:  Facebook Google Twitter Vk Yandex Mail.ru

Silverchair - Frogstomp - таба, видео

Печатать
Просмотров: 159
PINGA

					frogstoMp
					silverchair

1.ISRAEL'S SON
2.TOMORROW
3.FAULTLINE
4.PURE MASSACURE
5.SHADE
6.LEAVE ME OUT
7.SUICIDAL DREAM
8.MADMAN
9.UNDECIDED
10.CICADA
11.FINDAWAY
12.LYRICS



ISRAEL'S SON by silverchair
Transcribed by Braamo (bpsmith@socs.uts.edu.au)

Repeated baseline on introduction:

E---------------------------------|
B---------------------------------|
G---------------------------------|
D---------------------------------|
A--5--5----------5-------------5--|
E--------0--(3)-----3--0--(3)-----|  () = hammer

then guitar with distortion:

E------------------|
B------------------|
G---7--7--7--7-----|	x 3
D---7--7--7--7-----|
A---5--5--5--5-----|	followed by C power chord
E------------------|

then verse:
   D             C             C
E----------------------------------|
B----------------------------------|
G--7--7----------5-------------5---|
D--7--7----------5-------------5---|	repeated
A--5--5----------3-------------3---|
E--------0--(3)-----3--0--(3)------|

chorus:
   D  D     C     B  C
E------------------------|
B------------------------|
G--7--7-----5-----4--5---|	x 3
D--7--7-----5-----4--5---|
A--5--5--0--3--0--2--3---|
E------------------------|
then the chords Bb and Eb


Verse again

Chorus (x2)

D chord hold for many bars

Introduction baseline again

Verse as baseline only

Chorus (x2)

Then this baseline is played:

E----------------------------|
B----------------------------|
G----------------------------|
D----------------------------|
A----------------0--(3)--5---|
E--3--1--0--(3)--------------|

The chords to some of this baseline (ie. G F E C D) are 
then played as the singing becomes shouting. The song 
quickens in pace a bit at this stage and it becomes a 
prick to play all the chords in time - 
my advice, do ya best!



TOMORROW by silverchair
Transcribed by Braamo (bpsmith@socs.uts.edu.au)

Introduction
					      C  D  G  A
E---------0-------------0------------3-2------0--2--3--0|
B-----------2---2---------2---2----------3---1--3--0--2|
G-------------2-------------2------2----------0--2--0--2|
D-----2-------------2------------0------------2--0--0--2|
A---0---0---------0---0-----------------------3-----2--0|
E------------------------------------------------------3----|

Verse Chords: A / / / G / D / C G A repeated until over-drive sets in:

    A				     G     D  C   G 
	The water out of the tap is very .... hard to

   A         		      B	    C
 drink	....	Very hard to drink

Following each C chord in this leadin to the chorus, this riff is played:

E---------------------------|	
B---------------------------|	Parentheses indicate hammering
G--------------3-(5)-0-2--|
D--------3-(5)-------------|	
A--3-(5)-------------------|	
E---------------------------|	

	This riff is closely followed by the A chord in the next series of  
chords whether its the A-B-C of the leadin or the chorus itself (A-D-C-D) 
after the second verse.	The exception being in the first verse where the
song goes into a soft interlude:

E---5-5-10--12-10-----------8-10--12-10------------|
B---5-5-10--------10-12-10--8-10--------10-12-10-|
G---------------------------------------------------------|
D---------------------------------------------------------|
A---------------------------------------------------------|
E---------------------------------------------------------|

As mentioned above, the chorus is simply A to D to C and back to D.

And thats the whole song:

Intro
Verse 1
Louder Leadin
Soft Interlude
Loud Chorus
Soft Verse 2
Loud Leadin
Chorus
Solo
Chorus

Solo:

E-------------------------------------------------------|
B----------------------5-8-5--------------------------|
G--------5---------5-7-------5-7^-8-8-8-8-7-5---|
D--5-(7)---5-(7)--------------------------------------|
A-------------------------------------------------------|
E-------------------------------------------------------|



E-----------------------------------------------------|
B-----------------------------------------------------|
G--7^-7-7-5-7--5^--------------------------------|
D-----------------7-5-7^-----------5-(7)-7--------|
A------------------------5-5-5-(7)------------------|
E-----------------------------------------------------|

E--12^-12^----------------------------------------------------------|
B------12^-10-(12)-12^-10-12^-10------10-12^-12-12^-12^-|
G--------------------------------(12)---------------------------------|
D----------------------------------------------------------------------|
A----------------------------------------------------------------------|
E----------------------------------------------------------------------|

E--12-----------------------------------------|
B--12-10----10^----------------------------|
G--------12----------------------------------|
D---------------12^-12-10-----------------|
A--------------------------12----------------|
E---------------------------------------------|

E-----------------------------------------------------|
B----------------------------------------------------|
G-----12----12----12----12-----------------------|
D--12----12----12----12----12^-10-------------|
A---------------------------------12-----------------|
E-------------------------------------------------------|


Braamo

(bpsmith@socs.uts.edu.au)



FAULTLINE by silverchair
Transposed by Braamo (bpsmith@socs.uts.edu.au)

Not much tablature to speak of, just a shit loada chords:

	A			A6

E-------0-----------------------0---------------
B-------2-----------------------0---------------
G-------2-----------------------2---------------
D-------2-----------------------2---------------
A-------0-----------------------0---------------
E-----------------------------------------------

These are the two that are important, others such as C6 and Bb6 are 
just the A6 chord on the 3rd and 2nd frets repectively.

Verse:

D	     D6   D    C6    C  C6            C            C6   C   C6
	Unsuspecting brother .... doesn't know what to do

			      Bb6      Bb    G
	When everything just falls to the ground...

		(same again)
	He runs to find some cover, he doesn't have a clue
	That his friend will never be found.

	      Bb        C     Bb        G
	When he's been told, that he....

Chorus: [Over-drive/distortion]
	

F F F D  	 	    F			    D#
	Will never see the boy, will never see the boy,

			    Bb	     G
	Will never see him open his eyes.

   D			     F			      D
	We'll never see the boy, we'll never see the boy

			     Bb		G
	We'll only hear his heavenly cries

	Bb    C   Bb    G   F F F  
	Ooh yeah, ooh.

	D  A  Bb  G     D  A  Bb  C
	Ooh!		Ooh!


After second chorus, the interlude repeats:

	D / A G F / / /

Chord progression before the song holds on C is

	D / A G F E D C

In case you haven't figured it out, after the power C which holds for 
8 beats a power D is played and held for 8 beats.

The song finishes with an indecipherable sequence which seems to be just 
C and D in no particular order. I just play this by repeating:

E-----------------------------------------------|
B---7---5---7---5---5---(7)---5-----------------|
G---7---5---7---5---5---(7)---5-----------------|
D---7---5---7---5---5---(7)---5-----------------|
A-----------------------------------------------|
E-----------------------------------------------|

The same chord progression described above is played (a little quicker)
after this little interlude and finishes like this:

C / / / / / / D


Braamo

(bpsmith@socs.uts.edu.au)



PURE MASSACRE by silverchair
Transposed by Braamo (bpsmith@socs.uts.edu.au)

Introduction / Verse

E---------------------------------------------|
B---------------------------------------------|	
G------------------------------5-5------------|	
D---5-(6)-7-7-7-6^-*-5-5-7-7-7-----5-5-5-(7)--|	
A---------------------------------------------|	
E---------------------------------------------|
and so on...
() = hammer
^ = bend
* = play same note still in bent state

Chords Required:


    D5   D5/F  C5    D   C   Bb  F   G   A
E--------------------5---3---1---1---3---5---|
B--------------------7---5---3---1---3---5---|
G---7-----7----5-----7---5---3---2---4---6---|
D---7-----7----5-----7---5---3---3---5---7---|
A---5-----8----3-----5---3---1---3---5---7---|
E--------------------------------1---3---5---|


Distorted Second guitar basically repeats the following
during the verse:

	D5 /  D5/F  D5  /  D5/F  D5  C5  D5
	D5 /  D5/F  D5  /  D5/F  D5  G   A

The G and the A could probably be left out and you could just repeat
the first line over and over, and noone's really gonna notice.

For the chorus, repeat (including the beginning C (may be a
C5 if you can't be bothered) when repeating):

   C   G      F               G       Bb	
	Pure Massacre!!		Pure Massacre!!

	D5 /  D5/F  D5  /  D5/F  D5  C5  D5
	D5 /  D5/F  D5

The lead out of the chorus takes you 
straight back into the verse chords.

There is an interlude:

  D  Bb   	 C      G     D  Bb	     C      G
	There's people crying ..... there's people dying.

  D  Bb      C         G     D  Bb    C5
	But someone's taking ..... it all...	

These chords are also used at the end:

	D Bb / C G


Braamo

(bpsmith@socs.uts.edu.au)



LEAVE ME OUT by silverchair
Transcribed by Braamo (bpsmith@socs.uts.edu.au)

Given the below combinations, the song goes:
Introduction
Verse x 2
Chorus
Verse
Riff (backed by verse baseline)
Chorus
Bridge
Chorus


Introduction chords:

Bb / / / / / / / 
C / / / / / / /


Verse chords:
   D  D     G     F  D  C# C
E--5--5-----3-----1--5--4--3--|
B--7--7-----3-----1--7--6--5--|
G--7--7-----4-----2--7--6--5--|
D--7--7-----5-----3--7--6--5--|	x 4
A--5--5-----5-----3--5--4--3--|
E--------0--3--0--1-----------|
then:
C / / / / / / /
   G  G  G  G  G (E) F
E-------------------------|
B-------------------------|
G-------------------------|
D--5--5--5--5--5-----3----|	^ = bend if possible
A--5--5--5--5--5-----3----|
E--3--3--3--3--3--0--1^---|


Chorus Chords:

D / / / / B F (E) F G  x 4
	   |         |
	   |         |
	  \/	     \/
	F    (E)     F    G
E-------1------------1----3-----|
B-------1------------1----3-----|
G-------2------------2----4-----|
D-------3------------3----5-----|
A-------3------------3----5-----|
E-------1-----0------1----3-----|

A / / / / / / /
G# / / / G F


Riff:

E-----------------------------------------|
B--10--10--10--12^--10--12^^--10--9--8----|
G-----------------------------------------|  ^ = bend
D-----------------------------------------|  ^^ = bend further
A-----------------------------------------|
E-----------------------------------------|


Bridge:

D / / / / / / A
D / / / / / / E
D / / / / / / A
D / / / / / / E
G / / / / / / /
F / / / / / / /
G / / / / / / /
G# / / / Bb / Bb A G#	*pause*


Braamo

(bpsmith@socs.uts.edu.au)



Suicidal Dream by Silverchair



        Alright heres the main riffs from Suicial Dream off of the Frogstomp

  cd. I didn't include any timing or anything so you'll have to listen to the

  song to get that.



  Intro/Verse

E|-----------------------------|

B|-----------------------------|

G|*-----4-----4-----4-----4---*|

D|*---4-----4-----4-----4-----*|

A|--2-----------------------0--|

E|--------3-----0-----2--------|

   

  Chorus 

E|--2--2--0--3--|

B|--3--2--0--3--|

G|*-4--3--0--4-*|

D|*-4--4--2--5-*|

A|--2--4--2--5--|

E|-----2--0--3--|





  This riff is played once after the second chorus 

E|-----------------------------|

B|----3--------3--------3------|

G|--4-2------4-2------4-2------|

D|--4-0-5-4--4-0-2-4--4-0-5-4--|

A|--2---5-4--2---2-4--2---5-4--|

E|------3-2------0-2------3-2--|





Email comments, corrections, and complaints to

Voltage@vrb.com

Voltage@ahbqs.com

      or

Brian@idibbs.com



MADMAN by silverchair
tabbed by Evan (engdm@ix.netcom.com

Drop D tunning
 
This is a easy song of frogstomp.  It's really just one riff played fast and
slow.

didn't include strumming but its not hard to figure out.

intro
repeat this a few times
E----------------------------
B-----------------------------
G-----------------------------
D---------------------------------
A---12---0---12-12-12--0--
D---12---0---12-12-12 --0-


Main riff(play fast at parts, slow on other parts.)
E-----------------------------------------------------------
B----------------------------------------------------------
G----------------------------------------------------------
D----------------------------------------------------------
A--2--0--2--0--2--3--0--2------0--2--0--2--3--0--
D--2--0--2--0--2--3--0--2------0--2--0--2--3--0---

That's about it. mail me with any questions or comments at
endgm@ix.netcom.com
Evan



UNDECIDED by silverchair
Transcibed by Braamo (bpsmith@socs.uts.edu.au)

The boys may tune their guitars down a step
ie. D-A-F-C-G-D - but that's too much of a bugger
when you can "get away" with normal tuning:


There are various rhythms to the main riff in the song,
but if you stick by this and then adapt it to the 
drumbeat, you won't go wrong:

E-----------------------------|
B-----------------------------|
G---1__2--1--*----------*-----|  * = silence
D---2__3--2--*--2--0--2-*-----|  _ = slide
A---2__3--2--*--2--0--2-*-----|
E-----------------------------|


Change at end of verse:

G A Bb

-----
Chorus:

E	  G  F   Bb   
	Undecided, 	

E                  G          D    A
	can't make up their mi-i-i-i-ind

E              G          F   Bb
	Her parents were lying, 	
	
E		      G     D     A
	they've left you behi-i-i-i-ind...

-----

Bridge:

F# / / / B / A E    x 4

-----

End:

E---------------------------|
B---------------------------|
G---------------------------|  x 3
D--2--0--2--0--2--3--2--0---|
A--2--0--2--0--2--3--2--0---|then E chord to finish
E---------------------------|


Braamo

(bpsmith@socs.uts.edu.au)



CICADA by silverchair
Transcribed by Braamo (bpsmith@socs.uts.edu.au)


Introduction:

E / G A /
Change: C D


Verse:

E F# G A    *
Change: E D# D C# C D

* = sometimes these chords are played as a baseline only.


Chorus:

  E  D  A			  E		  G  A
	   It's like a civil war ...  GROWING UP!

	    until...

	  C        D   E  D  A
	Growing up ..........  It's like a civil war.


Solo chords:

	A / C D /    x 4
	Bb / B / C / D /	then intro chords.


Solo:

E-------------------------------------------|
B-------------------------------------------|
G-------------------------------------------|
D--12^--10------------------------------10--|
A-----------12--10--12^---10--10--(12)------|
E-------------------------------------------|

E------------------------------------------|
B------------------------------------------|
G------------------------------------------|
D--12^-12^-12^-12^-10----------------------|
A---------------------(12)-10-12-----------|
E------------------------------------------|

E--12^~~~~~~~~~~~~~~-----------------------|
B--------------------14-12-14--------------|
G-----------------------------14-12-14-----|
D------------------------------------------|
A------------------------------------------|
E------------------------------------------|

E------------------------------------------|
B------------------------------------------|
G------------------------------------------|
D--------------------12-(14)-12------------|
A--10-(12)-10--12---------------14-13^-----|
E------------------------------------------|

	^ = bend
	~~ = repeated


Braamo
(bpsmith@socs.uts.edu.au)



FINDAWAY by silverchair
Transcribed by Braamo (bpsmith@socs.uts.edu.au)


Introduction:

G# / / /

-----
Verse:

Bb   F   G#   D#   Bb   F   G#	   x 2
C#   C  x 4

-----
Chorus:

C    A    Bb   F	x 4

-----
Second Verse has no guitar until the G# just before the 
C#/C combo.

-----
Riff something along the lines of:

E-----------------------------------------------|
B--3--3-3-3-3-3_6--6-6-6-6-6_9--9-9-9-9-9-11-*--|
G-----------------------------------------------| _ = slide
D-----------------------------------------------|
A-----------------------------------------------|
E-----------------------------------------------|

* = every second repetition this adds a riff on the 9th and 11th
    frets on the second string which is a little indecipherable,
    no one notices the riff anyway, so just do anything.

Following the riff, the song reverts to the C#/C combo and then 
into the chorus before finishing on a Bb.


Braamo

(bpsmith@socs.uts.edu.au)



FROGSTOMP LYRICS

By Braamo (bpsmith@socs.uts.edu.au)

Last updated: 18th August, 1995.

Lyrics are to all songs found on the Frogstomp album.

Thanks to "Bart Simpson" (s9407374@yallara.cs.rmit.edu.au) for 
his assistance with many of the lyrics.


Contents
--------
1. Israel
Добавлено: 17.01.2014
Другие материалы по этой песне:
  • Аккорды и текст

Страница создана 17.01.2014
http://primanota.ru/silverchair/frogstomp-chords.htm
Привет, Гость.
Предлагаем пройти революционный курс по гитаре.
Подарок от PrimaNota.Ru, забирай!