PrimaNota.ru - самый крупный в мире бесплатный архив песенных текстов, аккордов, табулатур и нот


Silverchair - Cicada - аккорды и текст, таба, бас-таба, видео

Регистрация Запомнить меня
Войти через:  Facebook Google Twitter Vk Yandex Mail.ru

Silverchair - Cicada - аккорды и текст, таба, бас-таба, видео

Печатать
Просмотров: 168
Авторы музыки: Daniel Johns, Ben Gillies
Авторы текста: Daniel Johns
Cicada
Silverchair
Submitted By: Mikhailo


Standard Tuning: E A D G

G|--------------------------------------------------------------------------------------------|
D|--------------------------------------------------------------------------------------------|
A|--------------------------------------------------------------------------------------------|
E|--0-0-0-0----0-0-0-0----0-0-0-0----0-0-0-0----0-0-0-0----0-0-0-0----0-0-0-0----0-0-0-0------|

G|--------------------------------------------------------------------------------------------|
D|--------------------------------------------------------------------------------------------|
A|--------------------------------------------------------------------------------------------|
E|--0-0-0-0----0-0-0-0----0-0-0-0----0-0-0-0----0-0-0-0----0-0-0-0----0-0-0-0----0-0-0-0------|

G|--------------------------------------------------------------------------------------------|
D|--------------------------------------------------------------------------------------------|
A|--------------------------------------------------------------------------------------------|
E|--0--0--3-0--5-5-5-5-----0--0--3-0--5-5-5-5-----0--0--3-0--5-5-5-5-----0--0--3-0--5-5-5-5---|

G|--------------------------------------------------------------------------------------------|
D|--------------------------------------------------------------------------------------------|
A|--3-3--3/5--5-5--5/-----7-7---/9-9-9--------------------7-7---/9-9-9----------------------|
E|------------------------------------------3-3---/5-5-5----------------------3-3---/5-5-5----|

G|--------------------------------------------------------------------------------------------|
D|--------------------------------------------------------------------------------------------|
A|--7-7--/9-9-9-----------------7-7--/9-9-9-----------------7-7--/9-9-9--------------------|
E|-----------------3-3--/5-5-5-------------------3-3--/5-5-5------------------3-3---/5-5-5----|

G|--------------------------------------------------------------------------------------------|
D|--------------------------------------------------------------------------------------------|
A|--7-6-5-4----3-3---3/5--5-5-5/--------------------------------------------------------------|
E|--------------------------------0-0--2-2-2----3-3---5-5-5---0-0-0----2-2-2-2---2-2---3-3-3--|

G|--------------------------------------------------------------------------------------------|
D|--------------------------------------------------------------------------------------------|
A|--------------------------------------------------------------------------------------------|
E|--5-5-5-5--5-5----0-0--2-2-2---3-3---5-5-5---0-0-0----2-2-2-2---2-2---3-3-3--5-5-5-5--5-5---|

G|--------------------------------------------------------------------------------------------|
D|--------------------------------------------------------------------------------------------|
A|------------------------------------7-6-5-4----0-----3-3----3/5----5-5-5/------7--5--0------|
E|--0-0---2-2-2-----3-3----5-5-5--------------------------------------------------------------|

G|--------------------------------------------------------------------------------------------|
D|--------------------------------------------------------------------------------------------|
A|--------------------------------------------------------------------------------------------|
E|--0--0--3-0--5-5-5-5-----0--0--3-0--5-5-5-5-----0--0--3-0--5-5-5-5-----0--0--3-0--5-5-5-5---|

G|--------------------------------------------------------------------------------------------|
D|--------------------------------------------------------------------------------------------|
A|--3-3---3/5---5-5--5/------7--5--0------------7-7---/9-9-9--------10--10----/12--12--12----|
E|--------------------------------------------------------------------------------------------|

G|--------------------------------------------------------------------------------------------|
D|--------------------------------------------------------------------------------------------|
A|--7-7-7--------9-9-9-9--------9-9--------10--10--10-------12--12--12--12-----------12--12---|
E|--------------------------------------------------------------------------------------------|

G|--------------------------------------------------------------------------------------------|
D|--------------------------------------------------------------------------------------------|
A|--7-7-7--------9-9-9-9--------9-9--------10--10--10-------12--12--12--12-----------12--12---|
E|--------------------------------------------------------------------------------------------|

G|--------------------------------------------------------------------------------------------|
D|--------------------------------------------------------------------------------------------|
A|--7-7-7--------9-9-9-9--------9-9--------10--10--10-------12--12--12--12-----------12--12---|
E|--------------------------------------------------------------------------------------------|

G|--------------------------------------------------------------------------------------------|
D|--------------------------------------------------------------------------------------------|
A|--7-7-7--------9-9-9-9--------9-9--------10--10--10-------12--12--12--12-----------12--12---|
E|--------------------------------------------------------------------------------------------|

G|--------------------------------------------------------------------------------------------|
D|--------------------------------------------------------------------------------------------|
A|--7-7-7--------9-9-9-9--------9-9--------10--10--10-------12--12--12--12-----------12--12---|
E|--------------------------------------------------------------------------------------------|

G|--------------------------------------------------------------------------------------------|
D|--------------------------------------------------------------------------------------------|
A|--7-7-7--------9-9-9-9--------9-9--------10--10--10-------12--12--12--12-----------12--12---|
E|--------------------------------------------------------------------------------------------|

G|--------------------------------------------------------------------------------------------|
D|--------------------------------------------------------------------------------------------|
A|--7--6--5--4-------0-------3--3-----3-/-5--------5--5--5-/----------------7--5--0-----------|
E|--------------------------------------------------------------------------------------------|

G|--------------------------------------------------------------------------------------------|
D|--------------------------------------------------------------------------------------------|
A|--------------------------------------------------------------------------------------------|
E|--0--0--3-0--5-5-5-5-----0--0--3-0--5-5-5-5-----0--0--3-0--5-5-5-5-----0--0--3-0--5-5-5-5---|

G|--------------------------------------------------------------------------------------------|
D|--------------------------------------------------------------------------------------------|
A|--3-3---3/5---5-5--5/-------7--5------0---0-0------0-0-0-0-------3^----0---------5-5-5-5----|
E|--------------------------------------------------------------------------------------------|

G|--------------------------------------------------------------------------------------------|
D|--------------------------------------------------------------------------------------------|
A|--0--0-0---0-0-0-0-----3^---0---5-5-5-5------0--0-0---0-0-0-0------3^----0--------5-5-5-5---|
E|--------------------------------------------------------------------------------------------|

G|--------------------------------------------------------------------------------------------|
D|--------------------------------------------------------------------------------------------|
A|--0--0-0---0-0-0-0----3^---0----5-5-5-5-------1-1-1-1----1-1-1-1--/---2-2-2-2---2-2-2-2-----|
E|--------------------------------------------------------------------------------------------|

G|--------------------------------------------------------------------------------------------|
D|--------------------------------------------------------------------------------------------|
A|--3-3-3-3---3-3-3-3--/-5-5-5-5--5-5-5-/-7-7-------------------------------------------------|
E|----------------------------------------------0-0-0-0----0-0-0-0----0-0-0-0----0-0-0-0------|

G|--------------------------------------------------------------------------------------------|
D|--------------------------------------------------------------------------------------------|
A|--------------------------------------------------------------------------------------------|
E|--0--0--3-0--5-5-5-5-----0--0--3-0--5-5-5-5-----0--0--3-0--5-5-5-5-----0--0--3-0--5-5-5-5---|

G|--------------------------------------------------------------------------------------------|
D|--------------------------------------------------------------------------------------------|
A|--------------------------------------------------------------------------------------------|
E|--0-0-0-0----0-0-0-0----0-0-0-0----0-0-0-0----0-0-0-0----0-0-0-0----0-0-0-0----0-0-0-0------|

G|--------------------------------------------------------------------------------------------|
D|--------------------------------------------------------------------------------------------|
A|--------------------------------------------------------------------------------------------|
E|--0-0-0-0----0-0-0-0----0-0-0-0----0-0-0-0----0-0-0-0----0-0-0-0----0-0-0-0----0-0-0-0------|

G|--------------------------------------------------------------------------------------------|
D|----------------------------------------------------------------------|
A|--3-3---3/5---5-5--5/-------7--5------0----0----0-----0----0--------------------------------|
E|--------------------------------------------------------------------------------------------|

================================================================================
Добавлено: 07.07.2012
Другие материалы по этой песне:

Страница создана 14.03.2012
http://primanota.ru/silverchair/cicada-chords.htm
Привет, Гость.
Предлагаем пройти революционный курс по гитаре.
Подарок от PrimaNota.Ru, забирай!