PrimaNota.ru - самый крупный в мире бесплатный архив песенных текстов, аккордов, табулатур и нот


Silverchair - All Across The World - текст песни, таба, видео

Регистрация Запомнить меня
Войти через:  Facebook Google Twitter Vk Yandex Mail.ru

Silverchair - All Across The World - текст песни, таба, видео

Печатать
Просмотров: 128
Уроки эстрадного вокала в Санкт-Петербурге
Авторы музыки: Daniel Johns
Авторы текста: Daniel Johns
-------------------------------------------------------------------------------|
-------------------------------------------------------------------------------|

I saw no one tabbed this song out yet so I thought I would submitt a basic layout of the 
I'm pretty there are a few errors but it's better then nothing. I didn't figure out the 
yet but here's the rest of it.
enjoy.

chords

  E   Asus/C  C#m  G#
|---|--------|-4-|---|
|---|--------|-5-|-4-|
|-1-|-2------|-6-|-5-|
|-2-|-2------|-6-|-6-|
|-2-|-3------|-4-|-6-|
|-0-|--------|---|-4-|

Intro(keyboard transcribed for Guitar)
|------------------------------------------------------------------------|
|------------------------7-10-9----7/9-------------9-9---7-9-10-9-7------|
|-9-7-7--------------7-9---------9-----9/6---6-8-9-----6------------8-9--|
|-------10-9--7-9-10------------------------9----------------------------|
|------------------------------------------------------------------------|
|------------------------------------------------------------------------|

|------------------------------|
|-9-8--------------------------|
|-----10-8--------------7------|
|----------11-9--7-9-10---7-9--|
|------------------------------|
|------------------------------|

background for intro is the chords for the verse

verse and chorus and intro background
|-------------------------------------------------------|
|---------------------------0-------------5---5---------|
|-9-7-7------1---1---1--------2---1---1---6---6---4---4-|
|-------10-9-2---2---2----2-------2---2---6---6---6---6-|
|------------2---2---2--3---------2---2-4---4-----6---6-|
|--------------0---0------------0---0-----------4---4---|

|---------------------|-----------------|
|-5-5-5-5-------------|---5---5---------|
|-6-6-6-6-4-4-1-1-1-1-|---6---6---4---4-|
|-7-7-6-6-6-6-2-2-2-2-|---6---6---6---6-|
|---------6-6-2-2-2-2-|-4---4-----6---6-|
|-------------0-0-0-0-|---------4---4---|

1st verse ending
|-------------0---|
|-----0-----0---0-|
|---1---1-2-------|
|-2---------------|
|-----------------|2x       on verse before chorus this repeats 4x
|-----------------|         instead of 2x.

that's all I have for now but I will have the bridge done soon.
Добавлено: 15.10.2013
Другие материалы по этой песне:
  • Аккорды и текст

Страница создана 16.03.2012
http://primanota.ru/silverchair/all-across-the-world-chords.htm
Привет, Гость.
Предлагаем пройти революционный курс по гитаре.
Подарок от PrimaNota.Ru, забирай!