PrimaNota.ru - самый крупный в мире бесплатный архив песенных текстов, аккордов, табулатур и нот


Silver - De - таба, видео

Регистрация Запомнить меня
Войти через:  Facebook Google Twitter Vk Yandex Mail.ru

Silver - De - таба, видео

Печатать
Просмотров: 85
-------------------------------------------------------------------------------
                         Dearest Helpless - Silverchair
-------------------------------------------------------------------------------
Tabbed by: Jake Morash
E-mail: jakemorash314@verizon.net

Tuning: Standard

  Intro: 0:09 distortion
e|---------------------------------------------------------------------------------------------|
B|---------------------------------------------------------------------------------------------|   x1
G|-----3--------------------------3----------5---5-5--------3-------------------3--------------|
D|-3-3---3--4-5---5----5-5-5--3-3---3--4-5--------------3-3---3--4-5---5----3-3---3--4---------|
A|-1-1------4-5-3---3--5-5-5--1-1------4-5-3---3-----3--1-1------4-5-3---3--1-1------4---------|
E|-0-0------2-3--------3-3-3--0-0------2-3--------------0-0------2-3--------0-0------2-3b------|

  Verse: no distortion
e|-----------------------------------------------------------|
B|-----------------------------------------------------------|
G|-----------------------------------------------------------|
D|-3-3-3-3-4-4-4---------5-5-5-5-3-3-3-3--3-3-3-3-3-3--------|
A|-1-1-1-1-2-2-2-5-5-5-5-3-3-3-3-1-1-1-1--1-1-1-1-1-1--------|
E|---------------3-3-3-3-------------------------------------|

  Chorus: distortion
e|--------------------------|-----------------------------------|
B|--------------------------|-----------------------------------|
G|-----3--------------------|-----3-----------------------------|
D|-3-3---3--4-5---5---5-5-5-|-3-3---3--4-5---5-----5h6h5--------|
A|-1-1------4-5-3---3-5-5-5-|-1-1------4-5-3---3-3--------------|
E|-0-0------2-3-------3-3-3-|-0-0------2-3----------------------|

  Bridge: distortion off
e|-------------------------------------------------|-----------------------------------------------------|
B|-------------------------------------------------|-----------------------------------------------------|
G|-------------------------------------------------|-----3---------------------3-------------------------|
D|-8-8-8-4-4-4-8-8-8-4-4-4-------------------------|---3---4-4-4--2-3-4/1----3----4-5---5----5-5-5-------|
A|-6-6-6-2-2-2-6-6-6-2-2-2-8-8-8-4-4-4-8-8-8-4-4-4-|-1-----4-4-4--2-3-4/1--1------4-5-3---3--5-5-5-------|
E|-------------------------6-6-6-2-2-2-6-6-6-2-2-2-|-------2-2-2--2-3-4/1---------2-3--------3-3-3-------|

  Interlude after chorus: distortion
e|-------------------------------|
B|-------------------------------|
G|-----3-----------3-------------|
D|---3---4-4-4---3---4-4-4-------|
A|-1-----4-4-4-1-----4-4-4-------|
E|-------2-2-2-------2-2-2-------|

  Chorus Outro: distortion
e|--------------------------------|
B|--------------------------------|
G|-----3--------------------------|
D|-3-3---3--4-5---5----5-5-5------|
A|-1-1------4-5-3---3--5-5-5------|
E|-0-0------2-3--------3-3-3------|


************************************
| \   slide down
| h   hammer-on
| b   Bend
************************************
Добавлено: 03.11.2015
Другие материалы по этой песне:
  • Аккорды и текст

Страница создана 03.11.2015
http://primanota.ru/silver/de-chords.htm
Привет, Гость.
Предлагаем пройти революционный курс по гитаре.
Подарок от PrimaNota.Ru, забирай!