PrimaNota.ru - самый крупный в мире бесплатный архив песенных текстов, аккордов, табулатур и нот


Silver - Angels Calling - таба, видео

Регистрация Запомнить меня
Войти через:  Facebook Google Twitter Vk Yandex Mail.ru

Silver - Angels Calling - таба, видео

Печатать
Просмотров: 108
URL: www.thesilverband.com
Country: Norway

-----------------------------------------------------------------------------
                             Angels Calling - Silver
-----------------------------------------------------------------------------
Tabbed by: Aksel Ornes
Email: akselo_87@hotmail.com

Tuning: Standard

Intro

Rhythm
e|--------------------------------------------------------------------------|
B|--------------------------------------------------------------------------|
G|----------3---------------8-------6-------3---------------8-------6-------|
D|--4-------3-------6-------8-------6-------3-------6-------8-------6-------|
A|--4-------1-------6-------6-------4-------1-------6-------6-------4-------|
E|--2---------------4-------------------------------4-----------------------|
    F#      A#      G#      D#      C#      A#      G#      D#      C#

Lead
e|--------------------------------------------------------------------------|
B|--------------------------------------------------------------------------|
G|------------------10-8----8-10-8------------------10-8----8-10-8----------|
D|----------8-10-11----------------11-11----8-10-11----------------11-11----|
A|--------------------------------------------------------------------------|
E|--------------------------------------------------------------------------|



Vers 1
e|--------------------------------------------------------------------------|
B|--------------------------------------------------------------------------|
G|--3---------------------------------------------------------------3/11~~--|
D|--3-----Feedback--------------------------------------------------3/11~~--|
A|--1---------------------------------------------------------------1/9-~~--|
E|--------------------------------------------------------------------------|



Chorus 1

Rhythm
e|------------------------------------------------------------------|
B|------------------------------------------------------------------|
G|--3---------------8-------6-------3---------------8-------6-------|
D|--3-------6-------8-------6-------3-------6-------8-------6-------|
A|--1-------6-------6-------4-------1-------6-------6-------4-------|
E|----------4-------------------------------4-----------------------|
    A#      G#      D#      C#      A#      G#      D#      C#

Lead
e|------------------------------------------------------------------|
B|------------------------------------------------------------------|
G|----------10-8----8-10-8------------------10-8----8-10-8----------|
D|--8-10-11----------------11-11----8-10-11----------------11-11----|
A|------------------------------------------------------------------|
E|------------------------------------------------------------------|



Vers 2
e|--------------------------------------------------------------------------|
B|--------------------------------------------------------------------------|
G|--3---------------------------------------------------------------3/11~~--|
D|--3-----Feedback--------------------------------------------------3/11~~--|
A|--1---------------------------------------------------------------1/9-~~--|
E|--------------------------------------------------------------------------|



Chorus 2

Rhythm
e|------------------------------------------------------------------|
B|------------------------------------------------------------------|
G|--3---------------8-------6-------3---------------8-------6-------|
D|--3-------6-------8-------6-------3-------6-------8-------6-------|
A|--1-------6-------6-------4-------1-------6-------6-------4-------|
E|----------4-------------------------------4-----------------------|
    A#      G#      D#      C#      A#      G#      D#      C#


Lead
e|------------------------------------------------------------------|
B|------------------------------------------------------------------|
G|----------10-8----8-10-8------------------10-8----8-10-8----------|
D|--8-10-11----------------11-11----8-10-11----------------11-11----|
A|-----------------------------Fill1-------------------------Fill2--|
E|------------------------------------------------------------------|



Bridge
e|---------------------------------------------------9-------8-------6------|
B|---------------------------------------------------9-------8-------6------|
G|---------------------------------------------------10------8-------6------|
D|--4------6------8------6------4------4------6------11------8-------8------|
A|--4------6------8------6------4------4------6------11------10------8------|
E|--2------4------6------4------2------2------4------9-------8-------6------|
    F#     G#     A#     G#     F#     F#     G#     Cm#     Cm7     Am# 


e|--9------8------------------------------|
B|--9------8------------------------------|
G|--10-----8------------------------------|
D|--11-----8------4------6------7------9--|
A|--11-----10-----4------6------7------9--|
E|--9------8------2------4------5------7--|
    Cm#    Cm7    F#     G#     A      B


Solo
e|--9------9-------9------------------------12-----------------------|
B|--12b14--12b14---12b14r12p9----12p9h12b14----14r12p9-12~~----------|
G|----------------------------11----------------------------11-9-11--|
D|-------------------------------------------------------------------|
A|-------------------------------------------------------------------|
E|-------------------------------------------------------------------|

e|------------------------------------------------------------------------|
B|----------------------------------------------------12------------------|
G|--11b13r11b13--r11p9----9--11p9-11b13r11p9-11-11b13----13r11p9----11-9--|
D|---------------------11----------------------------------------11-------|
A|------------------------------------------------------------------------|
E|------------------------------------------------------------------------|

e|------------------------------------------9----------9-------14-----------|
B|---------------------------------------12---12-14r12---14b16----16r14p12--|
G|----------9-11-13r11p9----9-11p9-11b13------------------------------------|
D|------9-11-------------11-------------------------------------------------|
A|--9h11--------------------------------------------------------------------|
E|--------------------------------------------------------------------------|

e|--------------------------------------------------------------------------|
B|--12r11b12r11b12r11b12r11b12r11p9---9-10-9--------9-----------------------|
G|---------------------------------11-------11-9----11b13-9-11-11b13r11p9---|
D|-----------------------------------------------11----------------------11-|
A|--------------------------------------------------------------------------|
E|--------------------------------------------------------------------------|



Chorus/Outro
e|--------------------------------------------------------------------------|
B|--------------------------------------------------------------------------|
G|--6------4--------------------6------4--------------------6------4--------|
D|--6------4------4------7------6------4------4------7------6------4------4-|
A|--4------2------4------7------4------2------4------7------4------2------4-|
E|----------------2------5-Fill3--------------2------5-Fill4--------------2-|
    C#     B      F#     A      C#     B      F#     A      C#     B      F#


e|---------------------------------|
B|---------------------------------|
G|---------6------4----------------|
D|--7------6------4------4------7--|
A|--7------4------2------4------7--|
E|--5-Fill5--------Fill6-2------5--|
    A      C#     B      F#     A


Fill1
e|------------------------------------------------|
B|--9b11r9----------------9b11r9------------------|
G|---------6--10b11r10-----------6--10b11r10------|
D|---------------------8---------------------8-6--|
A|------------------------------------------------|
E|------------------------------------------------|   


Fill2
e|---------------------------|
B|--9b11-9--------9----9b11--|
G|---------6-8-10------------|
D|------------------10-------|
A|---------------------------|
E|---------------------------|


Fill3
e|---------------------------------------------------------|
B|--12b14r12-----------------12b14r12----------------------|
G|-----------9--13b14r13--------------9--13b14r13----------|
D|-----------------------11-----------------------11-9b11--|
A|---------------------------------------------------------|
E|---------------------------------------------------------|


Fill4
e|--------------------------------|
B|--12b14-12---------12----12b14--|
G|-----------9-11-13--------------|
D|----------------------13--------|
A|--------------------------------|
E|--------------------------------1


Fill5
e|--------------------------------------------------------------------------|
B|--12r11b12r11b12r11b12r11b12r11p9---9-10-9--------9-----------------------|
G|---------------------------------11-------11-9----11b13-9-11-11b13r11p9---|
D|-----------------------------------------------11----------------------11-|
A|--------------------------------------------------------------------------|
E|--------------------------------------------------------------------------|


Fill6
e|-----------------------------------------14-------------------------------|
B|--12b14r12b14r12-9-12-----------------14----14--------------------15-14-12|
G|----------------------11b13-11--13b15----------15r13b15r13----11----------|
D|-----------------------------------------------------------13-------------|
A|--------------------------------------------------------------------------|
E|--------------------------------------------------------------------------|


e|---------12---------------------|
B|10-12b14----14r12p10------------|
G|----------------------9-11-b13--|
D|--------------------------------|
A|--------------------------------|
E|--------------------------------|


| #  sharp
| b  bend
| r  release
| /  slide up
| \  slide down
| h  hammer-on
| p  pull-off
| ~  vibrato
| +  harmonic
| x  Mute note
=============================================================================
Добавлено: 23.04.2012
Другие материалы по этой песне:
  • Аккорды и текст

Страница создана 23.04.2012
http://primanota.ru/silver/angels-calling-chords.htm
Привет, Гость.
Предлагаем пройти революционный курс по гитаре.
Подарок от PrimaNota.Ru, забирай!