PrimaNota.ru - самый крупный в мире бесплатный архив песенных текстов, аккордов, табулатур и нот


Silver Convention - Fly Robin Fly - бас-таба, видео

Регистрация Запомнить меня
Войти через:  Facebook Google Twitter Vk Yandex Mail.ru

Silver Convention - Fly Robin Fly - бас-таба, видео

Печатать
Просмотров: 187
Авторы: Michael Kunze, Sylvester Levay

-------------------------------------------------------------------------------
                             Fly Robin Fly - Silver Convention
-------------------------------------------------------------------------------

Funny song to play. 
It's not to difficult you just gotta check the song, listen to it and check the notes.

Tuning: EADG
Intro and verse part goes the same. 0:00-1:25
G|-----------------|
D|-----1-1---------|
A|-3-3-----3-3---1-|
E|-------------3---|

The "interlude" part.1:25-1:30

G|------------------------|
D|-------3-3--3-------578-|
A|--------3-33------------|
E|-1---1--------1--1------|

Section III. 1:30-1:58
G|---------------------------------------------|
D|---------------------------------------------|
A|-6-6---66---66--66--6--3-3----33--33--33---3-|
E|-----66---66--66---6-------33---33--33---3---|

G|-----------------------------------------|--------1--0-----------1--3-|
D|-----------------------------------------|-3--5----------3--5---------|
A|-6-6---66---66--66--6--3-3----33--33--33-|----------------------------|
E|-----66---66--66---6-------33---33--33---|----------------------------|

Section IV. 1:58-2:30
G|---------------------------------------------|
D|---------------------------------------------|
A|-6-6---66---66--66--6--3-3----33--33--33---3-|
E|-----66---66--66---6-------33---33--33---3---|

G|-----------------------------------------|--------1--0-----------1-1-2-2-3--3---5--7|
D|-----------------------------------------|-3--5----------3--5-----------------------|
A|-6-6---66---66--66--6--3-3----33--33--33-|------------------------------------------|
E|-----66---66--66---6-------33---33--33---|------------------------------------------|

From 2:30 to 3:38:
Repeat the intro/verse part.

From 3:38 to 3:42:
Repeat the "interlude part".

From 3:42 to 4:39:
Repeat the Section III and IV.

From 4:39 until the end.

Repeat the intro/verse part.

That's all. Thank you.
Добавлено: 20.06.2015
Другие материалы по этой песне:
  • Аккорды и текст

Страница создана 20.06.2015
http://primanota.ru/silver-convention/fly-robin-fly-chords.htm
Привет, Гость.
Предлагаем пройти революционный курс по гитаре.
Подарок от PrimaNota.Ru, забирай!