PrimaNota.ru - самый крупный в мире бесплатный архив песенных текстов, аккордов, табулатур и нот


Silent Stream Of Godless Elegy - Dva Stiny Mam - текст песни, таба, видео

Регистрация Запомнить меня
Войти через:  Facebook Google Twitter Vk Yandex Mail.ru

Silent Stream Of Godless Elegy - Dva Stiny Mam - текст песни, таба, видео

Печатать
Просмотров: 107
Уроки эстрадного вокала в Санкт-Петербурге
band: Silent Stream of Godless Elegy
www: ssoge.com
album: Návaz
song: Dva stíny mám


Tabbed by : Miroslav Petřek (mira@ssoge.com)

Tempo 1/4 115

Tuning Down D (D G C F A D)

                               PM PM    PM PM       PM PM  
     W                   E.  S S  S  E  S  S  E  E  S  S   
D||-------------------|-----------------------------------|
A||-------------------|-----------------------------------|
F||-------------------|-----------------------------------|
C||-------------------|--4---4-4--4--4--4--4--4--4--4--4--|
G||-------------------|--4---4-4--4--4--4--4--4--4--4--4--|
D||-------------------|--2---2-2--2--2--2--2--2--2--2--2--|


        PM PM    PM PM       PM PM          PM PM    PM PM       PM PM  
  E.  S S  S  E  S  S  E  E  S  S     E.  S S  S  E  S  S  E  E  S  S   
-----------------------------------|-----------------------------------|
-----------------------------------|-----------------------------------|
-----------------------------------|-----------------------------------|
--4---4-4--4--4--4--4--4--4--4--4--|--4---4-4--4--4--4--4--4--4--4--4--|
--4---4-4--4--4--4--4--4--4--4--4--|--4---4-4--4--4--4--4--4--4--4--4--|
--2---2-2--2--2--2--2--2--2--2--2--|--3---3-3--3--3--3--3--3--3--3--3--|


        PM PM    PM PM       PM PM          PM PM    PM PM       PM PM  
  E.  S S  S  E  S  S  E  E  S  S     E.  S S  S  E  S  S  E  E  S  S   
-----------------------------------|-----------------------------------|
-----------------------------------|-----------------------------------|
-----------------------------------|-----------------------------------|
--2---2-2--2--2--2--2--2--2--2--2--|--4---4-4--4--4--4--4--4--4--4--4--|
--4---4-4--4--4--4--2--2--2--2--2--|--4---4-4--4--4--4--4--4--4--4--4--|
--3---3-3--3--3--3--3--0--0--0--0--|--2---2-2--2--2--2--2--2--2--2--2--|


        PM PM    PM PM       PM PM          PM PM    PM PM       PM PM  
  E.  S S  S  E  S  S  E  E  S  S     E.  S S  S  E  S  S  E  E  S  S   
-----------------------------------|-----------------------------------|
-----------------------------------|-----------------------------------|
-----------------------------------|-----------------------------------|
--4---4-4--4--4--4--4--4--4--4--4--|--4---4-4--4--4--4--4--4--4--4--4--|
--4---4-4--4--4--4--4--4--4--4--4--|--4---4-4--4--4--4--4--4--4--4--4--|
--2---2-2--2--2--2--2--2--2--2--2--|--3---3-3--3--3--3--3--3--3--3--3--|


        PM PM    PM PM       PM PM              
  E.  S S  S  E  S  S  E  E  S  S     H         
-----------------------------------|-----------|
-----------------------------------|-----------|
-----------------------------------|-----------|
--2---2-2--2--2--2--2--2--2--2--2--|--4--------|
--4---4-4--4--4--4--2--2--2--2--2--|--4--------|
--3---3-3--3--3--3--3--0--0--0--0--|--2--------|


        PM PM    PM PM       PM PM          PM PM    PM PM       PM PM  
  E.  S S  S  E  S  S  E  E  S  S     E.  S S  S  E  S  S  E  E  S  S   
-----------------------------------|-----------------------------------|
-----------------------------------|-----------------------------------|
-----------------------------------|-----------------------------------|
--4---4-4--4--4--4--4--4--4--4--4--|--4---4-4--4--4--4--4--4--4--4--4--|
--4---4-4--4--4--4--4--4--4--4--4--|--4---4-4--4--4--4--4--4--4--4--4--|
--2---2-2--2--2--2--2--2--2--2--2--|--3---3-3--3--3--3--3--3--3--3--3--|


        PM PM    PM PM       PM PM          PM PM    PM PM       PM PM  
  E.  S S  S  E  S  S  E  E  S  S     E.  S S  S  E  S  S  E  E  S  S   
-----------------------------------|-----------------------------------|
-----------------------------------|-----------------------------------|
-----------------------------------|-----------------------------------|
--2---2-2--2--2--2--2--2--2--2--2--|--4---4-4--4--4--4--4--4--4--4--4--|
--4---4-4--4--4--4--2--2--2--2--2--|--4---4-4--4--4--4--4--4--4--4--4--|
--3---3-3--3--3--3--3--0--0--0--0--|--2---2-2--2--2--2--2--2--2--2--2--|


        PM PM    PM PM       PM PM          PM PM    PM PM       PM PM  
  E.  S S  S  E  S  S  E  E  S  S     E.  S S  S  E  S  S  E  E  S  S   
-----------------------------------|-----------------------------------|
-----------------------------------|-----------------------------------|
-----------------------------------|-----------------------------------|
--4---4-4--4--4--4--4--4--4--4--4--|--4---4-4--4--4--4--4--4--4--4--4--|
--4---4-4--4--4--4--4--4--4--4--4--|--4---4-4--4--4--4--4--4--4--4--4--|
--2---2-2--2--2--2--2--2--2--2--2--|--3---3-3--3--3--3--3--3--3--3--3--|


        PM PM    PM PM       PM PM          PM PM    PM PM       PM PM  
  E.  S S  S  E  S  S  E  E  S  S     E.  S S  S  E  S  S  E  E  S  S   
-----------------------------------|-----------------------------------|
-----------------------------------|-----------------------------------|
-----------------------------------|-----------------------------------|
--2---2-2--2--2--2--2--2--2--2--2--|--4---4-4--4--4--4--4--4--4--4--4--|
--4---4-4--4--4--4--2--2--2--2--2--|--4---4-4--4--4--4--4--4--4--4--4--|
--3---3-3--3--3--3--3--0--0--0--0--|--2---2-2--2--2--2--2--2--2--2--2--|


        PM PM    PM PM       PM PM          PM PM    PM PM       PM PM  
  E.  S S  S  E  S  S  E  E  S  S     E.  S S  S  E  S  S  E  E  S  S   
-----------------------------------|-----------------------------------|
-----------------------------------|-----------------------------------|
-----------------------------------|-----------------------------------|
--4---4-4--4--4--4--4--4--4--4--4--|--4---4-4--4--4--4--4--4--4--4--4--|
--4---4-4--4--4--4--4--4--4--4--4--|--4---4-4--4--4--4--4--4--4--4--4--|
--2---2-2--2--2--2--2--2--2--2--2--|--3---3-3--3--3--3--3--3--3--3--3--|


        PM PM    PM PM       PM PM          PM PM    PM PM       PM PM  
  E.  S S  S  E  S  S  E  E  S  S     E.  S S  S  E  S  S  E  E  S  S   
-----------------------------------|-----------------------------------|
-----------------------------------|-----------------------------------|
-----------------------------------|-----------------------------------|
--2---2-2--2--2--2--2--2--2--2--2--|--4---4-4--4--4--4--4--4--4--4--4--|
--4---4-4--4--4--4--2--2--2--2--2--|--4---4-4--4--4--4--4--4--4--4--4--|
--3---3-3--3--3--3--3--0--0--0--0--|--2---2-2--2--2--2--2--2--2--2--2--|


        PM PM    PM PM       PM PM          PM PM    PM PM       PM PM  
  E.  S S  S  E  S  S  E  E  S  S     E.  S S  S  E  S  S  E  E  S  S   
-----------------------------------|-----------------------------------|
-----------------------------------|-----------------------------------|
-----------------------------------|-----------------------------------|
--4---4-4--4--4--4--4--4--4--4--4--|--4---4-4--4--4--4--4--4--4--4--4--|
--4---4-4--4--4--4--4--4--4--4--4--|--4---4-4--4--4--4--4--4--4--4--4--|
--2---2-2--2--2--2--2--2--2--2--2--|--3---3-3--3--3--3--3--3--3--3--3--|


        PM PM    PM PM       PM PM                          
  E.  S S  S  E  S  S  E  E  S  S     H.           E  Q     
-----------------------------------|-----------------------|
-----------------------------------|-----------------------|
-----------------------------------|-----------------------|
--2---2-2--2--2--2--2--2--2--2--2--|--4---------------5----|
--4---4-4--4--4--4--2--2--2--2--2--|--4---------------5----|
--3---3-3--3--3--3--3--0--0--0--0--|--2---------------3----|


     PM                        PM                                    
  E  E  H        E  Q       E  E  H.              H        H         
-------------------------|---------------------|--------------------|
-------------------------|---------------------|--------------------|
-------------------------|---------------------|--------------------|
-----4--4-----------5----|-----4--4------------|--5--------7--------|
-----4--4-----------5----|-----4--4------------|--5--------7--------|
-----2--2-----------3----|-----2--2------------|--3--------5--------|


                             PM                        PM               
  H.           E  Q       E  E  H        E  Q       E  E  H.            
-----------------------|-------------------------|---------------------|
-----------------------|-------------------------|---------------------|
-----------------------|-------------------------|---------------------|
--4---------------5----|-----4--4-----------5----|-----4--4------------|
--4---------------5----|-----4--4-----------5----|-----4--4------------|
--2---------------3----|-----2--2-----------3----|-----2--2------------|


                                      PM            PM           PM       
  H        H           Q    Q    Q    E  Q       E  E  Q    Q    E  Q     
--------------------|-------------------------|--------------------------|
--------------------|-------------------------|--------------------------|
--------------------|-------------------------|--------------------------|
--5--------2--------|--4----4----4----4--5----|-----4--4----4----4--5----|
--5--------2--------|--4----4----4----4--5----|-----4--4----4----4--5----|
--3--------0--------|--2----2----2----2--3----|-----2--2----2----2--3----|


     PM                                                      PM       
  E  E  Q    H           H        H           Q    Q    Q    E  Q     
----------------------|--------------------|-------------------------|
----------------------|--------------------|-------------------------|
----------------------|--------------------|-------------------------|
-----4--4----4--------|--5--------7--------|--4----4----4----4--5----|
-----4--4----4--------|--5--------7--------|--4----4----4----4--5----|
-----2--2----2--------|--3--------5--------|--2----2----2----2--3----|


     PM           PM            PM                                     
  E  E  Q    Q    E  Q       E  E  Q    H           H        H         
--------------------------|----------------------|--------------------|
--------------------------|----------------------|--------------------|
--------------------------|----------------------|--------------------|
-----4--4----4----4--5----|-----4--4----4--------|--5--------2--------|
-----4--4----4----4--5----|-----4--4----4--------|--5--------2--------|
-----2--2----2----2--3----|-----2--2----2--------|--3--------0--------|


                                                PM PM    PM PM       PM PM  
  W                                       E.  S S  S  E  S  S  E  E  S  S   
-------------------|-------------------|-----------------------------------|
-------------------|-------------------|-----------------------------------|
-------------------|-------------------|-----------------------------------|
--4----------------|-------------------|--4---4-4--4--4--4--4--4--4--4--4--|
--4----------------|-------------------|--4---4-4--4--4--4--4--4--4--4--4--|
--2----------------|-------------------|--2---2-2--2--2--2--2--2--2--2--2--|


        PM PM    PM PM       PM PM          PM PM    PM PM       PM PM  
  E.  S S  S  E  S  S  E  E  S  S     E.  S S  S  E  S  S  E  E  S  S   
-----------------------------------|-----------------------------------|
-----------------------------------|-----------------------------------|
-----------------------------------|-----------------------------------|
--4---4-4--4--4--4--4--4--4--4--4--|--2---2-2--2--2--2--2--2--2--2--2--|
--4---4-4--4--4--4--4--4--4--4--4--|--4---4-4--4--4--4--2--2--2--2--2--|
--3---3-3--3--3--3--3--3--3--3--3--|--3---3-3--3--3--3--3--0--0--0--0--|


          PM PM    PM PM       PM PM          PM PM    PM PM       PM PM  
    E.  S S  S  E  S  S  E  E  S  S     E.  S S  S  E  S  S  E  E  S  S   
|------------------------------------|-----------------------------------|
|------------------------------------|-----------------------------------|
|*-----------------------------------|-----------------------------------|
|*--4---4-4--4--4--4--4--4--4--4--4--|--4---4-4--4--4--4--4--4--4--4--4--|
|---4---4-4--4--4--4--4--4--4--4--4--|--4---4-4--4--4--4--4--4--4--4--4--|
|---2---2-2--2--2--2--2--2--2--2--2--|--2---2-2--2--2--2--2--2--2--2--2--|


        PM PM    PM PM       PM PM          PM PM    PM PM       PM PM    
  E.  S S  S  E  S  S  E  E  S  S     E.  S S  S  E  S  S  E  E  S  S     
-----------------------------------|------------------------------------||
-----------------------------------|------------------------------------||
-----------------------------------|-----------------------------------*||
--4---4-4--4--4--4--4--4--4--4--4--|--2---2-2--2--2--2--2--2--2--2--2--*||
--4---4-4--4--4--4--4--4--4--4--4--|--4---4-4--4--4--4--2--2--2--2--2---||
--3---3-3--3--3--3--3--3--3--3--3--|--3---3-3--3--3--3--3--0--0--0--0---||


        PM PM    PM PM       PM PM          PM PM    PM PM       PM PM  
  E.  S S  S  E  S  S  E  E  S  S     E.  S S  S  E  S  S  E  E  S  S   
-----------------------------------|-----------------------------------|
-----------------------------------|-----------------------------------|
-----------------------------------|-----------------------------------|
--4---4-4--4--4--4--4--4--4--4--4--|--4---4-4--4--4--4--4--4--4--4--4--|
--4---4-4--4--4--4--4--4--4--4--4--|--4---4-4--4--4--4--4--4--4--4--4--|
--2---2-2--2--2--2--2--2--2--2--2--|--2---2-2--2--2--2--2--2--2--2--2--|


        PM PM    PM PM       PM PM          PM PM    PM   PM   PM    
                                                     |----3----|     
  E.  S S  S  E  S  S  E  E  S  S     E.  S S  S  E  Q    Q    Q     
-----------------------------------|--------------------------------|
-----------------------------------|--------------------------------|
-----------------------------------|--------------------------------|
--4---4-4--4--4--4--4--4--4--4--4--|--2---2-2--2--2--8----7----5----|
--4---4-4--4--4--4--4--4--4--4--4--|--4---4-4--4--4--8----7----5----|
--3---3-3--3--3--3--3--3--3--3--3--|--3---3-3--3--3--6----5----3----|


  PM      PM      PM         PM                  PM             PM    
  Q    E  Q    E  Q       E  Q    E  H           Q    E  Q.     Q     
-----------------------|-------------0--------|----------0-----------|
-----------------------|-------------0--------|----------0-----------|
-----------------------|----------------------|----------------------|
--4-------4-------4----|-----4----------------|--5--------------2----|
--4-------4-------4----|-----4----------------|--5--------------2----|
--2-------2-------2----|-----2----------------|--3--------------0----|


     PM        PH     PH     PH      PM      PM      PM    
               |------3------|                             
  E  Q    E    Q      Q      Q       Q    E  Q    E  Q     
----------------------------------|-----------------------|
----------------------------------|-----------------------|
----------------------------------|-----------------------|
-----2----------------------------|--4-------4-------4----|
-----2-------<>7----<>5-----------|--4-------4-------4----|
-----0---------------------<>2----|--2-------2-------2----|


     PM                  PM             PM    
  E  Q    E  H           Q    E  Q.     Q     
-------------0--------|----------0-----------|
-------------0--------|----------0-----------|
----------------------|----------------------|
-----4----------------|--5--------------2----|
-----4----------------|--5--------------2----|
-----2----------------|--3--------------0----|


     PM        PH     PH     PH      PM      PM      PM    
               |------3------|                             
  E  Q    E    Q      Q      Q       Q    E  Q    E  Q     
----------------------------------|-----------------------|
----------------------------------|-----------------------|
----------------------------------|-----------------------|
-----2----------------------------|--4-------4-------4----|
-----2-------<>7----<>5-----------|--4-------4-------4----|
-----0---------------------<>2----|--2-------2-------2----|


     PM                  PM             PM    
  E  Q    E  H           Q    E  Q.     Q     
-------------0--------|----------0-----------|
-------------0--------|----------0-----------|
----------------------|----------------------|
-----4----------------|--5--------------2----|
-----4----------------|--5--------------2----|
-----2----------------|--3--------------0----|


     PM        PH     PH     PH      PM      PM      PM    
               |------3------|                             
  E  Q    E    Q      Q      Q       Q    E  Q    E  Q     
----------------------------------|-----------------------|
----------------------------------|-----------------------|
----------------------------------|-----------------------|
-----2----------------------------|--4-------4-------4----|
-----2-------<>7----<>5-----------|--4-------4-------4----|
-----0---------------------<>2----|--2-------2-------2----|


     PM                  PM             PM    
  E  Q    E  H           Q    E  Q.     Q     
-------------0--------|----------0-----------|
-------------0--------|----------0-----------|
----------------------|----------------------|
-----4----------------|--5--------------2----|
-----4----------------|--5--------------2----|
-----2----------------|--3--------------0----|


     PM        PH     PH     PH      PM      PM      PM    
               |------3------|                             
  E  Q    E    Q      Q      Q       Q    E  Q    E  Q     
----------------------------------|-----------------------|
----------------------------------|-----------------------|
----------------------------------|-----------------------|
-----2----------------------------|--4-------4-------4----|
-----2-------<>7----<>5-----------|--4-------4-------4----|
-----0---------------------<>2----|--2-------2-------2----|


     PM                  PM             PM    
  E  Q    E  H           Q    E  Q.     Q     
-------------0--------|----------0-----------|
-------------0--------|----------0-----------|
----------------------|----------------------|
-----4----------------|--5--------------2----|
-----4----------------|--5--------------2----|
-----2----------------|--3--------------0----|


     PM        PH     PH     PH      PM      PM      PM    
               |------3------|                             
  E  Q    E    Q      Q      Q       Q    E  Q    E  Q     
----------------------------------|-----------------------|
----------------------------------|-----------------------|
----------------------------------|-----------------------|
-----2----------------------------|--4-------4-------4----|
-----2-------<>7----<>5-----------|--4-------4-------4----|
-----0---------------------<>2----|--2-------2-------2----|


     PM                  PM             PM    
  E  Q    E  H           Q    E  Q.     Q     
-------------0--------|----------0-----------|
-------------0--------|----------0-----------|
----------------------|----------------------|
-----4----------------|--5--------------2----|
-----4----------------|--5--------------2----|
-----2----------------|--3--------------0----|


     PM        PH     PH     PH                     PM       
               |------3------|                               
  E  Q    E    Q      Q      Q       Q    Q    Q    E  Q     
----------------------------------|-------------------------|
----------------------------------|-------------------------|
----------------------------------|-------------------------|
-----2----------------------------|--4----4----4----4--5----|
-----2-------<>7----<>5-----------|--4----4----4----4--5----|
-----0---------------------<>2----|--2----2----2----2--3----|


     PM           PM            PM                                     
  E  E  Q    Q    E  Q       E  E  Q    H           H        H         
--------------------------|----------------------|--------------------|
--------------------------|----------------------|--------------------|
--------------------------|----------------------|--------------------|
-----4--4----4----4--5----|-----4--4----4--------|--5--------7--------|
-----4--4----4----4--5----|-----4--4----4--------|--5--------7--------|
-----2--2----2----2--3----|-----2--2----2--------|--3--------5--------|


                 PM            PM           PM            PM                
  Q    Q    Q    E  Q       E  E  Q    Q    E  Q       E  E  Q    H         
-------------------------|--------------------------|----------------------|
-------------------------|--------------------------|----------------------|
-------------------------|--------------------------|----------------------|
--4----4----4----4--5----|-----4--4----4----4--5----|-----4--4----4--------|
--4----4----4----4--5----|-----4--4----4----4--5----|-----4--4----4--------|
--2----2----2----2--3----|-----2--2----2----2--3----|-----2--2----2--------|


  E  E  E  E  E  E  E  E     E  E  E  E  E  E  E  E     W                 
--------------------------|--------------------------|-------------------|
--------------------------|--------------------------|-------------------|
--------------------------|--------------------------|-------------------|
--5--5--5--5--5--5--5--5--|--5--5--5--5--5--5--5--5--|-------------------|
--5--5--5--5--5--5--5--5--|--5--5--5--5--5--5--5--5--|-------------------|
--3--3--3--3--3--3--3--3--|--3--3--3--3--3--3--3--3--|-------------------|


  W                   W                   W                 
-------------------|-------------------|-------------------|
-------------------|-------------------|-------------------|
-------------------|-------------------|-------------------|
-------------------|-------------------|-------------------|
-------------------|-------------------|-------------------|
-------------------|-------------------|-------------------|


  PM    PM    PM    PM       PM    PM    PM    PM     
  E  E  E  E  E  E  E  E     E  E  E  E  E  E  E  E   
--------------------------|--------------------------|
--------------------------|--------------------------|
--------------------------|--------------------------|
--4--4--4--4--4--4--4--4--|--4--4--4--4--4--4--4--4--|
--4--4--4--4--4--4--4--4--|--4--4--4--4--4--4--4--4--|
--2--2--2--2--2--2--2--2--|--3--3--3--3--3--3--3--3--|


  PM    PM    PM PM             PM    PM    PM    PM     
  E  E  E  E  S  S  E  E  E     E  E  E  E  E  E  E  E   
-----------------------------|--------------------------|
-----------------------------|--------------------------|
-----------------------------|--------------------------|
--2--2--2--2--2--0--2--2--2--|--4--4--4--4--4--4--4--4--|
--4--4--4--4--4--0--2--2--2--|--4--4--4--4--4--4--4--4--|
--3--3--3--3--3--0--0--0--0--|--2--2--2--2--2--2--2--2--|


  PM    PM    PM    PM       PM    PM    PM    PM     
  E  E  E  E  E  E  E  E     E  E  E  E  E  E  E  E   
--------------------------|--------------------------|
--------------------------|--------------------------|
--------------------------|--------------------------|
--4--4--4--4--4--4--4--4--|--4--4--4--4--4--4--4--4--|
--4--4--4--4--4--4--4--4--|--4--4--4--4--4--4--4--4--|
--2--2--2--2--2--2--2--2--|--3--3--3--3--3--3--3--3--|


  PM    PM    PM PM             PM    PM    PM    PM     
  E  E  E  E  S  S  E  E  E     E  E  E  E  E  E  E  E   
-----------------------------|--------------------------|
-----------------------------|--------------------------|
-----------------------------|--------------------------|
--2--2--2--2--2--0--2--2--2--|--4--4--4--4--4--4--4--4--|
--4--4--4--4--4--0--2--2--2--|--4--4--4--4--4--4--4--4--|
--3--3--3--3--3--0--0--0--0--|--2--2--2--2--2--2--2--2--|


  PM    PM    PM    PM       PM    PM    PM    PM     
  E  E  E  E  E  E  E  E     E  E  E  E  E  E  E  E   
--------------------------|--------------------------|
--------------------------|--------------------------|
--------------------------|--------------------------|
--4--4--4--4--4--4--4--4--|--4--4--4--4--4--4--4--4--|
--4--4--4--4--4--4--4--4--|--4--4--4--4--4--4--4--4--|
--2--2--2--2--2--2--2--2--|--3--3--3--3--3--3--3--3--|


  PM    PM    PM PM             PM    PM    PM    PM     
  E  E  E  E  S  S  E  E  E     E  E  E  E  E  E  E  E   
-----------------------------|--------------------------|
-----------------------------|--------------------------|
-----------------------------|--------------------------|
--2--2--2--2--2--0--2--2--2--|--4--4--4--4--4--4--4--4--|
--4--4--4--4--4--0--2--2--2--|--4--4--4--4--4--4--4--4--|
--3--3--3--3--3--0--0--0--0--|--2--2--2--2--2--2--2--2--|


  PM    PM    PM    PM       PM    PM    PM    PM     
  E  E  E  E  E  E  E  E     E  E  E  E  E  E  E  E   
--------------------------|--------------------------|
--------------------------|--------------------------|
--------------------------|--------------------------|
--4--4--4--4--4--4--4--4--|--4--4--4--4--4--4--4--4--|
--4--4--4--4--4--4--4--4--|--4--4--4--4--4--4--4--4--|
--2--2--2--2--2--2--2--2--|--3--3--3--3--3--3--3--3--|


  PM    PM    PM PM                                      
  E  E  E  E  S  S  E  E  E     E  E  E  E  E  E  E  E   
-----------------------------|--------------------------|
-----------------------------|--------------------------|
-----------------------------|--------------------------|
--2--2--2--2--2--0--2--2--2--|--4--4--4--4--4--4--4--4--|
--4--4--4--4--4--0--2--2--2--|--4--4--4--4--4--4--4--4--|
--3--3--3--3--3--0--0--0--0--|--2--2--2--2--2--2--2--2--|


  E  E  E  E  E  E  E  E     E  E  E  E  E  E  E  E   
--------------------------|--------------------------|
--------------------------|--------------------------|
--------------------------|--------------------------|
--4--4--4--4--4--4--4--4--|--5--5--5--5--5--5--5--5--|
--4--4--4--4--4--4--4--4--|--5--5--5--5--5--5--5--5--|
--2--2--2--2--2--2--2--2--|--3--3--3--3--3--3--3--3--|


  E  E  E  E  E  E  E  E     E  E  E  E  E  E  E  E   
--------------------------|--------------------------|
--------------------------|--------------------------|
--------------------------|--------------------------|
--5--5--5--5--5--2--2--2--|--4--4--4--4--4--4--4--4--|
--5--5--5--5--5--2--2--2--|--4--4--4--4--4--4--4--4--|
--3--3--3--3--3--0--0--0--|--2--2--2--2--2--2--2--2--|


  E  E  E  E  E  E  E  E     W                                     
--------------------------|-------------------||
--------------------------|-------------------||
--------------------------|-------------------||
--4--4--4--4--4--4--4--4--|--5----------------||
--4--4--4--4--4--4--4--4--|--5----------------||
--2--2--2--2--2--2--2--2--|--3----------------||


Duration Legend
---------------
W - whole
H - half
Q - quarter
E - 8th
S - 16th
T - 32nd
X - 64th
. - note dotted
|-n-|  - n-tuplets


Tablature Legend
----------------
L - tied note
x - dead note
g - grace note
(n) - ghost note
> - accentuded note
NH - natural harmonic
AH - artificial harmonic
TH - tapped harmonic
SH - semi harmonic
PH - pitch harmonic
h - hammer on
p - pull off
b - bend
br - bendRelease
pb - preBend
pbr - preBendRelease
brb - bendReleaseBend
\n/ - tremolo bar dip
\n - tremolo bar dive
-/n - tremolo bar Release up
/n\ - tremolo bar inverted dip
/n - tremolo bar return
-\n - tremolo bar Release down
S - shift slide
s - legato slide
/ -  slide into from below or out of upwards
\ -  slide into from above or out of downwards
~ - vibrato
W - wide vibrato
tr - trill
TP - tremolo picking
T - tapping
S - slap
P - pop
< - fade in
^ - brush up
v - brush down
Добавлено: 18.05.2012
Другие материалы по этой песне:
  • Аккорды и текст

Страница создана 18.05.2012
http://primanota.ru/silent-stream-of-godless-elegy/dva-stiny-mam-chords.htm
Привет, Гость.
Предлагаем пройти революционный курс по гитаре.
Подарок от PrimaNota.Ru, забирай!