PrimaNota.ru - самый крупный в мире бесплатный архив песенных текстов, аккордов, табулатур и нот


Silent Season - Us All - таба, видео

Регистрация Запомнить меня
Войти через:  Facebook Google Twitter Vk Yandex Mail.ru

Silent Season - Us All - таба, видео

Печатать
Просмотров: 125
-------------------------------------------------------------------------------
                             Silent season - us all
-------------------------------------------------------------------------------
Tabbed by: veracious
E-mail:

Tuning:drop A
not ordered but all there apart from lead to lazy to transcribe it from 7 string to 6 

e|---------------------------------------------------------------------------|
B|---------------------------------------------------------------------------|
G|---------------------------------------------------------------------------|
D|-4-4-4-4-4-4-------------7-7-7-7-6-6-6-6-----------------------------------|
A|-2-2-2-2-2-2-0-0-0-0-0-0-5-5-5-5-4-4-4-4-4-4-4-4-5-5-5-5-------------------|
E|-------------0-0-0-0-0-0-----------------4-4-4-4-5-5-5-5-------------------|
   *******************************************************
e|---------------------------------------------------------------------------|
B|---------------------------------------------------------------------------|
G|---------------------------------------------------------------------------|
D|-4-4-4-4--6-6-6-6-7-7-7-7-11-11-11-11-12-12-12-12--------------------------|
A|-2-2-2-2--4-4-4-4-5-5-5-5-9--9--9--9--10-10-10-10--------------------------|
E|---------------------------------------------------------------------------|

e|---------------------------------------------------------------------------|
B|---------------------------------------------------------------------------|
G|---------------------------------------------------------------------------|
D|-----------4-4-4-4---------------------------------------------------------|
A|-0-0-0-2-2-2-2-2-2-4-4-4-4-5-5-5-5-----------------------------------------|
E|-0-0-0-2-2-2-------4-4-4-4-5-5-5-5-----------------------------------------|
                     * * * * * * * *
e|---------------------------------------------------------------------------|
B|---------------------------------------------------------------------------|
G|---------------------------------------------------------------------------|
D|-5-5-5-5-7-7---------------------------------------------------------------|
A|-3-3-3-5-5-5-5--2----------------------------------------------------------|
E|-------------5--2----------------------------------------------------------|
                  *
e|---------------------------------------------------------------------------|
B|---------------------------------------------------------------------------|
G|---------------------------------------------------------------------------|
D|---------------------------------------------------------------------------|
A|-2-2--0-2-0-2-2-5-0-5-0-5--------------------------------------------------|
E|-2-2--0-2-0-2-2-5-0-5-0-5--------------------------------------------------|

e|---------------------------------------------------------------------------|
B|---------------------------------------------------------------------------|
G|---------------------------------------------------------------------------|
D|-4-4-4-4---6-6-6-6---7-7-7-7---11-11-11-12-12------------------------------|
A|-2-2-2-2-2-4-4-4-4-2-5-5-5-5-2-9--9--9--10-10------------------------------|
E|---------2---------2---------2---------------------------------------------|
           *         *



************************************

| /   slide up
| \   slide down
| h   hammer-on
| p   pull-off
| ~   vibrato
| +   harmonic
| x   Mute note
| b   Bend
| pb  Pre-bend
| br  Bend release
| pbr Pre-bend release
| brb Bend release bend

************************************
Добавлено: 03.08.2015
Другие материалы по этой песне:
  • Аккорды и текст

Страница создана 03.08.2015
http://primanota.ru/silent-season/us-all-chords.htm
Привет, Гость.
Предлагаем пройти революционный курс по гитаре.
Подарок от PrimaNota.Ru, забирай!