PrimaNota.ru - самый крупный в мире бесплатный архив песенных текстов, аккордов, табулатур и нот


Silent Sanctuary - Sayo - аккорды и текст, таба, видео

Регистрация Запомнить меня
Войти через:  Facebook Google Twitter Vk Yandex Mail.ru

Silent Sanctuary - Sayo - аккорды и текст, таба, видео

Печатать
Просмотров: 147
Sayo
Silent Sanctuary
Sayo - Silent Sanctuary (Monodramatic Album 2013)
Standard Tuning: EADGBE
Chords used:

*Important Reminder* 
      F Chord

e|------1-------------|
B|------1-------------|
G|------2-------------|
D|------3-------------|    
A|X-------------------|
E|X-------------------|

      C Chord

e|-------0------------|
B|-------1------------|
G|-------0------------|
D|-------2------------|    
A|-------3------------|
E|X-------------------|

      A Chord

e|-------0------------|
B|-------2------------|
G|-------2------------|
D|-------2------------|    
A|--------------------|
E|X-------------------|

      D Chord

e|--------2-----------|
B|--------3-----------|
G|--------2-----------|
D|--------0-----------|    
A|X-------------------|
E|X-------------------|

Piano Version Intro:

e|------------------------------------|
B|----------------------13--13-----10-|
G|--10--10--10--12--12---------12-----|
D|---------------------------------7--|
A|--8---------------------------------|
E|------------------------------------|

e|------------------------------10-----|
B|----------------------13--13------10-|
G|--10--10--10--12--12-----------------|
D|----------------------------------7--|
A|--8----------------------------------|
E|-------------------------------------|

Orchestra Version Inro: C - F x2


Verse 1:

     C         F
Minsan oo minsan hindi
     C         F
Minsan tama minsan mali
     C         F
Umaabante, umaatras
     C         F
Kilos mong namimintas
     F          A
Kung tunay nga ang pag-ibig mo
     C          F        
Kaya mo bang isigaw
     C          F    C
Iparating sa mundo


Chorus:

     F        A
Tumingin sa'king mata 
     C        D
Magtapat ng nadarama
     F        A
Di gusto ika'y mawala
     C           F
Dahil handa akong ibigin ka
     C                  C (Let Ring) 
Kung maging tayo sa'yo na ang puso ko


Repeat Intro: C - F x2


Verse 2:

       C          F
Walang ibang tatanggapin
       C          F
Ikaw at ikaw parin
       C          F
May gulo ba sa iyong isipan
       C          F
Di tugma sa nararamdaman
       F                    A - C    
Kung tunay nga ang pag-ibig mo


Chorus:

     F        A
Tumingin sa'king mata 
     C        D
Magtapat ng nadarama
     F        A
Di gusto ika'y mawala
     C           F
Dahil handa akong ibigin ka
     C             C (Let ring)     
Kung maging tayo


Bridge:

     F           A
Kaylangan ba kitang iwasan
     F               A
Sa tuwing lalapit may paalam
     C          F
Ibang anyo sa karamihan
     A                  C       F       D
Iba rin pag tayo, iba rin pag tayo lang ah


Chorus:

     F        A
Tumingin sa'king mata 
     C        D
Magtapat ng nadarama
     F        A
Di gusto ika'y mawala
     C           F
Dahil handa akong ibigin ka
     C            F      
Kung maging tayo
     C            F      
Kung maging tayo
     C            F
Sa'yo na ang puso ko


Outro:

C - F (Hanggang sa matapos ^_^)

Violin/Cello? Part:

e|--------------------|
B|---11--12--14-------|
G|--------------------|    x4
D|--------------------|    
A|--------------------|
E|--------------------|

e|------------------------------------|
B|----------------------13--13-----10-|
G|--10--10--10--12--12---------12-----|
D|---------------------------------7--|
A|--8---------------------------------|
E|------------------------------------|

e|------------------------------10-----|
B|----------------------13--13------10-|
G|--10--10--10--12--12-----------------|
D|----------------------------------7--|
A|--8----------------------------------|
E|-------------------------------------|

by: MonMon
Добавлено: 05.10.2013
Другие материалы по этой песне:
  • Аккорды и текст

Страница создана 16.06.2013
http://primanota.ru/silent-sanctuary/sayo-chords.htm
Привет, Гость.
Предлагаем пройти революционный курс по гитаре.
Подарок от PrimaNota.Ru, забирай!