PrimaNota.ru - самый крупный в мире бесплатный архив песенных текстов, аккордов, табулатур и нот


Silent Sanctuary - Pasensya Ka Na - таба, видео

Регистрация Запомнить меня
Войти через:  Facebook Google Twitter Vk Yandex Mail.ru

Silent Sanctuary - Pasensya Ka Na - таба, видео

Печатать
Просмотров: 46
Pasensya Ka Na by Silent Sanctuary

Tabs written and arranged by Edwin-E (in YouTube)
Blog: http://guitarplucking.blogspot.com
Facebook Page: EGuitar

Video Tutorial: http://www.youtube.com/watch?v=L7Pob12o1lA


E|--------0--------------0--------0--------------0---|
B|--0--------0-----2--------0--------0-----------0---|
G|-----2--------2-----2--------2--------------1--1---|
D|-----------------0-----------------------2---------|
A|--0-----------------------0-----------2------------|
E|-----------------------------------0---------------|
INTRO:  A9-DM7-A9-E


VERSE I:

E|--------------0-----------------|
B|-----------------2--2--2--0-----|
G|--------2--2--------------------|
D|-----2-----------0-----------2--|
A|--0-----------------------------|
E|--------------------------------|
A9         DM7
  Hindi mo na mapipilit


E|-----------------------------2--|
B|--------5-----------------2--2--|
G|--------4--4--4--4--6--2-----2--|
D|-----6-----------------0--------|
A|--4-----------------------------|
E|--------------------------------|
C#m7              DM7
  Wala nang babalikan


E|--------------0-----------------|
B|-----------------2--2--2--0-----|
G|--------2--2--------------------|
D|-----2-----------0-----------2--|
A|--0-----------------------------|
E|--------------------------------|
A9           DM7
  Sa liwanag mong nang-aakit


E|-----------------------------2--|
B|--------5-----------------2--2--|
G|--------4--4--4--4--6--2-----2--|
D|-----6-----------------0--------|
A|--4-----------------------------|
E|--------------------------------|
C#m7              DM7
  Ayoko nang masaktan


Refrain:

E|----------------------------2--|
B|-------------5--------2-----2--|
G|----2--2--2--4--6--4-----2--2--|
D|-------------6--------0--------|
A|-------------4-----------------|
E|-------------------------------|
        C#m7    DM7
  Nakikiusap sa'yo


E|------------------------------------------0-----------0--|
B|--------5-----2--3--3/5--2--2p0--------------0-----0--0--|
G|--2--2--4--6--2------------------------1--------1-----1--|
D|--------6-----0---------------------2--------------------|
A|--------4------------------------2-----------------------|
E|---------------------------------------------------------|
    C#m7  DM7         E
  Patawarin mo na lang ako


E|------------------0--|
B|-------0--2/3--2--0--|
G|----2-------------1--|
D|----------0-------2--|
A|------------------2--|
E|------------------0--|
E     DM7   E
  Patawarin...


CHORUS:

E|-------------2--0-----0--|
B|----------------------0--|
G|----1--2--2-----------2--|
D|-------------------2-----|
A|----------------0--------|
E|-------------------------|
              A9
  Pasensya ka na


E|----------2--------------|
B|-------------5-----------|
G|----2--2--------7--6--6--|
D|-------------------------|
A|-------------4-----------|
E|-------------------------|
              C#m7
  At di ko na rin madama


E|----------------------------------------|
B|--------2-----2--3--3/5--2--2--0--------|
G|-----4-----4-------------------------2--|
D|--7-----0-------------------------------|
A|----------------------------------2-----|
E|----------------------------0-----------|
       DM7                E
  Kaytagal kitang hinihintay

E|-------------2--0-----0--|
B|----------------------0--|
G|----1--2--2-----------2--|
D|-------------------2-----|
A|----------------0--------|
E|-------------------------|
              A9
  Pasensya ka na


E|----------2--------------|
B|-------------5-----------|
G|----2--2--------7--6--6--|
D|-------------------------|
A|-------------4-----------|
E|-------------------------|
           C#m7
  Kaya ko nang mag-isa


E|----------------------------------------0--|
B|--------2-----2--3--3/5--2--0-----------0--|
G|-----4-----4-------------------------1--1--|
D|--7-----0-------------------------2--------|
A|-------------------------------2-----------|
E|----------------------------0--------------|
      DM7                 E
  Kalayaan sa kamay ng lumbay


VERSE II: (follow TABs on Verse I and Refrain)

A9        DM7
  Ikaw na rin ang nagsabi
C#m7             DM7
  Tapos na ang lahat
A9        DM7
  Uunahin na ang sarili
C#m7                DM7
  Makuha lang ang sapat

Refrain:
           C#m7         DM7
  Huwag ka sanang magtampo
        C#m7 DM7            E
  Mas mabuti nang ako'y lumayo
E     DM7    E
  Lumayo...

Repeat Chorus:

A9 - DM7 - A9 - E

Repeat Chorus

E|-------------2--0-----0--------|
B|----------------------0--0-----|
G|----1--2--2-----------2-----2--|
D|-------------------2-----------|
A|----------------0--------------|
E|-------------------------------|
              A9
  Pasensya ka na
E|-----4--------4--0-----------------0---|
B|-----5--------------2-----2--------0---|
G|-----4--4--4-----------2-----------1---|
D|-----6-----------0-----------------2---|
A|--4-----------------------------2--2---|
E|-----------------------------0-----0---|
C#m7             DM7 E
  Pasensya ka na


E|-------------2--0-----0--------|
B|----------------------0--0-----|
G|----1--2--2-----------2-----2--|
D|-------------------2-----------|
A|----------------0--------------|
E|-------------------------------|
              A9
  Pasensya ka na


E|-----4--------4--0-----------------0---|
B|-----5--------------2-----2--------0---|
G|-----4--4--4-----------2-----------1---|
D|-----6-----------0-----------------2---|
A|--4-----------------------------2--2---|
E|-----------------------------0-----0---|

C#m7  DM7 E


E|--------------------------0--|
B|-----------0--2--------2--2--|
G|--1--2--2-----------2-----2--|
D|-----------------2--------2--|
A|--------------0--------------|
E|-----------------------------|
              A9
  Pasensya ka na....
Добавлено: 16.11.2015
Другие материалы по этой песне:
  • Аккорды и текст

Страница создана 16.11.2015
http://primanota.ru/silent-sanctuary/pasensya-ka-na-chords.htm
Привет, Гость.
Предлагаем пройти революционный курс по гитаре.
Подарок от PrimaNota.Ru, забирай!