PrimaNota.ru - самый крупный в мире бесплатный архив песенных текстов, аккордов, табулатур и нот


Silent Planet - Native Blood - таба, видео

Регистрация Запомнить меня
Войти через:  Facebook Google Twitter Vk Yandex Mail.ru

Silent Planet - Native Blood - таба, видео

Печатать
Просмотров: 77
--------------------------------------------------------------------------------
                             Native Blood - Silent Planet
-------------------------------------------------------------------------------

The Lead melodies to an incredible song by an amazing band.
Hope this helps!


Tuning: Bb

e|---------------------------------18---17-----------------------------------|
B|--10--b10----18--17----13--b13---------------------------------------------|
G|---------------------------------------------------------------------------|
D|---------------------------------------------------------------------------|
A|---------------------------------------------------------------------------|
E|---------------------------------------------------------------------------|

e|----22p18-----18-----------------22p18-----18----------------|
B|-----------22----22p18-17h18------------22----22p18-17h18----|
G|-------------------------------------------------------------| repeat as needed
D|-------------------------------------------------------------|
A|-------------------------------------------------------------|
E|-------------------------------------------------------------|

e|--------------------17------------17/22--18p17-------17-----------17----------17--------------------------|
B|------------13/15------------15---------------18p17----18p17--------20p18p17----20p17--14h17--------------|
G|--14-------------------14h15-----------------------------------------------------------------15p14--------|
D|-----12h15---------------------------------------------------19-------------------------------------15p12-|
A|----------------------------------------------------------------------------------------------------------|
E|----------------------------------------------------------------------------------------------------------|


************************************

| /   slide up
| \   slide down
| h   hammer-on
| p   pull-off
| b   Bend


************************************
Добавлено: 14.06.2016
Другие материалы по этой песне:

Страница создана 07.06.2016
http://primanota.ru/silent-planet/native-blood-chords.htm
Привет, Гость.
Предлагаем пройти революционный курс по гитаре.
Подарок от PrimaNota.Ru, забирай!