PrimaNota.ru - самый крупный в мире бесплатный архив песенных текстов, аккордов, табулатур и нот


Silent Partner - Stomp It Away - таба, видео

Регистрация Запомнить меня
Войти через:  Facebook Google Twitter Vk Yandex Mail.ru

Silent Partner - Stomp It Away - таба, видео

Печатать
Просмотров: 45
-------------------------------------------------------------------------------
                             Stomp it away - Silent partner
-------------------------------------------------------------------------------
Tabbed by: cheekychakers
    this my first tab, i really like the song, but i can't find any tabs, so i 
    learnt the song by ear and have tried my best to tab it out for people.
    forgive me if its that bad.
Tuning: standard

~ means vibrato 

these are just the notes you can obviously play along to the song to work 
out the timings.
e|---------------------------------------------------------------------------|
B|---------------------------------------------------------------------------|
G|---------------------------------------------------------------------------|
D|---------------------------------------------------------------------------|
A|----------5-7/9-7~-------5-------------------------------------------------|
E|-0-----/7-------------/7---7-5-3-0-----------------------------------------|

this happens for a few bars then it goes into this.

e|---------------------------------------------------------------------------|
B|---------------------------------------------------------------------------|
G|---------------------------------------------------------------------------|
D|---------------------------------------------------------------------------|
A|----------5-7/9-7---------5------------------------------------------------|
E|-0-0---/7---------0-0--/7---7-5-3-0-0--------------------------------------|

the open E string is played unmuted and rings out.

e|---------------------------------------------------------------------------|
B|---------------------------------------------------------------------------|
G|---------------------------------------------------------------------------|
D|-7-7--10-10---2---------------7-7--10-10---2---------------------14--------|
A|-7-7--10-10---2------5--------7-7--10-10---2---------------------14--------|
E|-5-5---8--8---0---/7---7-5-3--5-5---8--8---0---------------------12--------|
                                                                     
this riff is played for a few bars. the 12th fret chord is played a few times.

the whole song is pretty much these notes and riffs, but sorry for no solo, i'm still trying to figure it out 
if anyone wants to improve it feel free
Добавлено: 20.06.2016
Вам также может быть интересно:
Другие материалы по этой песне:
  • Аккорды и текст

Страница создана 20.06.2016
http://primanota.ru/silent-partner/stomp-it-away-chords.htm
Привет, Гость.
Предлагаем пройти революционный курс по гитаре.
Подарок от PrimaNota.Ru, забирай!