PrimaNota.ru - самый крупный в мире бесплатный архив песенных текстов, аккордов, табулатур и нот


Silent Fall - Sesame Street Theme Punk Version - аккорды и текст, видео

Регистрация Запомнить меня
Войти через:  Facebook Google Twitter Vk Yandex Mail.ru

Silent Fall - Sesame Street Theme Punk Version - аккорды и текст, видео

Печатать
Просмотров: 63
Sesame Street Theme Punk Version
Silent Fall
------------------------------------------------------------------------
		Fall Silent - Sesame Street Theme (punk version)
------------------------------------------------------------------------
                                                |_|
By:Jay- guitaristnc2@hotmail.com                 |
                                                 |
Intro/Intro to Verse|| How many times its played V
e|--------------------------------------------|(x2)
B|--------------------------------------------|(x2)
G|10-10-12--12--13--13--12--13--12------------|(x4)[first distortion]
D|--------------------------------------------|(x2)[stopping]
A|8--8--10--10--11--11--10--11--10------------|(x2)[last distor.]
E|--------------------------------------------|(x8)[to end]
Verse
e|--------------------------------------------|(x3)
B|--------------------------------------------|(x3)
G|--------------------------------------------|(x3)
D|10-10-10-10-12--12--12--12------------------|(x3)
A|8--8--8--8--10--10--10--10------------------|
E|--------------------------------------------|
Intro. to Chorus
e|--------------------------------------------|(x1)
B|--------------------------------------------|(x1)
G|--------------------------------------------|(x1)
D|13--14--15--12--12--13--14------------------|(x1)
A|11--12--13--10--10--11--12------------------|
E|--------------------------------------------|
Chorus
e|--------------------------------------------|(x1)[back to top]
B|--------------------------------------------|(x1)[disort- top]
G|--------------------------------------------|(x1)[back to top
D|10-10-10-12--13-----------------------------|(x1)[undistort/slow-
A|8--8--8--10--11-----------------------------|	   back to top]
E|--------------------------------------------|

This sounded really close when I played it... but the ending goes higher on 
guitar, and i know that it ends on A|15-|power chord. If you've never heard 
the song, then its a bit different from the original version. Any questions 
about it, then just email me.
     
Добавлено: 04.11.2013
Другие материалы по этой песне:
  • Аккорды и текст

Страница создана 14.08.2013
http://primanota.ru/silent-fall/sesame-street-theme-punk-version-chords.htm
Привет, Гость.
Предлагаем пройти революционный курс по гитаре.
Подарок от PrimaNota.Ru, забирай!