PrimaNota.ru - самый крупный в мире бесплатный архив песенных текстов, аккордов, табулатур и нот


Silent Civilian - Treatment - таба, видео

Регистрация Запомнить меня
Войти через:  Facebook Google Twitter Vk Yandex Mail.ru

Silent Civilian - Treatment - таба, видео

Печатать
Просмотров: 210
Treatment - Silent Civilian  
(as I've been told this song is actually called "Divided")
Tabbed By: Sammy Sabby
Tuning: Standard [EADGBe]
Original tuning: CGCFAD

Intro:
e|-----------------------|    |-----------------------|
B|-----------------------|    |-----------------------|
G|-----------------------|    |-----------------------|
D|-555555555-55-55-55-55-|    |-666666666-66-66-66-66-|
A|-333333333-33-33-33-33-|    |-444444444-44-44-44-44-|
E|-----------------------| x3 |-----------------------|

 |-----------------------|    |-----------------------|
 |-----------------------|    |-----------------------|
 |---------5~------------|    |---------6~------------|
 |-555555555~55-55-55-55-|    |-666666666~66-66-66-66-|
 |-33333333--33-33-33-33-|    |-44444444--44-44-44-44-|
 |-----------------------| x3 |-----------------------| }[repeat x2]

 |-----------|
 |-----------|
 |-5-       -|
 |-5- PAUSE -|
 |-3-       -|
 |-----------|

Verse 1:
e|---------------|
B|---------------|
G|---------------|
D|\\\\\\\\\\\\\\-|
A|\ SLIDE DOWN \-|
E|\\\\\\\\\\\\\\-|

e|---------------------------------------------------------|
B|---------------------------------------------------------|
G|---------------------------------------------------------|
D|--------5------------5--------------5------------5-------|
A|---6-56---6-5-6-6-56---6-5-6---6-56---6-5-6-6-56---6-5-6-|
E|-8---------------------------4---------------------------| x3

Pre-Chorus:                                    S      T  T T  S
e|---------------------------------------------------------------------|
B|---------------------------------------------------------------------|
G|---------------------------------------------------------------------|
D|-3333333333333333-6666666666666666-9-9-9----------10-10-10-----------|
A|-3333333333333333-6666666666666666-9-9-9----------10-10-10-333-55-66-|
E|-1111111111111111-4444444444444444-7-7-7--10\6\5--8--8--8--111-33-44-|

                                     S      T  T T  S
 |---------------------------------------------------------------|
 |---------------------------------------------------------------|
 |-----------------------------------------------------------b10-|
 |-3333333333333333-6666666666666666-9-9-9----------10-10-10-b10-|
 |-3333333333333333-6666666666666666-9-9-9----------10-10-10-b8--|
 |-1111111111111111-4444444444444444-7-7-7--10\6\5–-8--8--8------|

Chorus:
e|---------------------------------------------|
B|---------------------------------------------|
G|---------------------------------------------|
D|-77777777-1010101010101010-55555555-66666666-|
A|-55555555-8-8-8-8-8-8-8-8--33333333-44444444-|
E|---------------------------------------------|

e|--------------------------------------------|
B|--------------------------------------------|
G|--------------------------------------------|
D|-77777777-1010101010101010-55555555-6-6-6-6-|
A|-55555555-8-8-8-8-8-8-8-8--33333333-4-4-4-4-|
E|--------------------------------------------|

 [repeat]

e|-----------------------|    
B|-----------------------|    
G|-----------------------|    
D|-555555555-55-55-55-55-|    
A|-333333333-33-33-33-33-|    
E|-----------------------|

 |-----------------------|    |-----------------------|
 |-----------------------|    |-----------------------|
 |---------5~------------|    |---------6~------------|
 |-555555555~55-55-55-55-|    |-666666666~66-66-66-66-|
 |-33333333--33-33-33-33-|    |-44444444--44-44-44-44-|
 |-----------------------| x3 |-----------------------|

Verse 2:
e|---------------------------------------------------------|
B|---------------------------------------------------------|
G|---------------------------------------------------------|
D|--------5------------5--------------5------------5-------|
A|---6-56---6-5-6-6-56---6-5-6---6-56---6-5-6-6-56---6-5-6-|
E|-8---------------------------4---------------------------| x3

Pre-Chorus:                                     S      T  T T  S
e|---------------------------------------------------------------------|
B|---------------------------------------------------------------------|
G|---------------------------------------------------------------------|
D|-3333333333333333-6666666666666666-9-9-9----------10-10-10-----------|
A|-3333333333333333-6666666666666666-9-9-9----------10-10-10-333-55-66-|
E|-1111111111111111-4444444444444444-7-7-7--10\6\5--8--8--8--111-33-44-|

                                     S      T  T T  S
 |---------------------------------------------------------------|
 |---------------------------------------------------------------|
 |-----------------------------------------------------------b10-|
 |-3333333333333333-6666666666666666-9-9-9----------10-10-10-b10-|
 |-3333333333333333-6666666666666666-9-9-9----------10-10-10-b8--|
 |-1111111111111111-4444444444444444-7-7-7--10\6\5–-8--8--8------|

Chorus:
e|---------------------------------------------|
B|---------------------------------------------|
G|---------------------------------------------|
D|-77777777-1010101010101010-55555555-66666666-|
A|-55555555-8-8-8-8-8-8-8-8--33333333-44444444-|
E|---------------------------------------------|

e|--------------------------------------------|
B|--------------------------------------------|
G|--------------------------------------------|
D|-77777777-1010101010101010-55555555-6-6-6-6-|
A|-55555555-8-8-8-8-8-8-8-8--33333333-4-4-4-4-|
E|--------------------------------------------|

Bridge:
e|------------------------------------------------------|
B|------------------------------------------------------|
G|------------------------------------------------------|
D|------------------------------865---865---------------|
A|----656---656----868---868-----------------656----868-|
E|-88-----8-----66-----6-----33-----3-----44-----66-----| x4

   T TTT TTT T TTT TTT T TTT TTT T TTT T TTT
 |-------------------------------------------|
 |-------------------------------------------| [play this part as
 |-------------------------------------------|  32nd notes]
 |-----------------------865-865-------------|
 |—--656-656---868-868-------------656---868-|
 |-8---------6—--------3---------4-----6-----| x2

e|------------------------------------------------------|
B|------------------------------------------------------|
G|------------------------------------------------------|
D|------------------------------865---865---------------|
A|----656---656----868---868-----------------656----868-|
E|-88-----8-----66-----6-----33-----3-----44-----66-----|

Pre-Chorus:
e|---------------|
B|---------------|
G|---------------|
D|\\\\\\\\\\\\\\-|
A|\ SLIDE DOWN \-|
E|\\\\\\\\\\\\\\-|

e|---------------------------------------------------------|
B|---------------------------------------------------------|
G|---------------------------------------------------------|
D|--------5------------5--------------5------------5-------|
A|---6-56---6-5-6-6-56---6-5-6---6-56---6-5-6-6-56---6-5-6-|
E|-8---------------------------4---------------------------| x2

                                     S      T  T T  S
 |---------------------------------------------------------------|
 |---------------------------------------------------------------|
 |-----------------------------------------------------------b10-|
 |-3333333333333333-6666666666666666-9-9-9----------10-10-10-b10-|
 |-3333333333333333-6666666666666666-9-9-9----------10-10-10-b8--|
 |-1111111111111111-4444444444444444-7-7-7--10\6\5–-8--8--8------|

Chorus:
e|---------------------------------------------|
B|---------------------------------------------|
G|---------------------------------------------|
D|-77777777-1010101010101010-55555555-66666666-|
A|-55555555-8-8-8-8-8-8-8-8--33333333-44444444-|
E|---------------------------------------------|

e|--------------------------------------------|
B|--------------------------------------------|
G|--------------------------------------------|
D|-77777777-1010101010101010-55555555-6-6-6-6-|
A|-55555555-8-8-8-8-8-8-8-8--33333333-4-4-4-4-|
E|--------------------------------------------|

    [repeat x4]

Outro:
e|-----------------------|    |-----------------------|
B|-----------------------|    |-----------------------|
G|---------5~------------|    |---------6~------------|
D|-555555555~55-55-55-55-|    |-666666666~66-66-66-66-|
A|-33333333--33-33-33-33-|    |-44444444--44-44-44-44-|
E|-----------------------| x3 |-----------------------|

 |-----------------------|    |-----------------------|
 |-----------------------|    |-----------------------|
 |-----------------------|    |-----------------------|
 |-555555555-55-55-55-55-|    |-666666666-66-66-66-66-|
 |-333333333-33-33-33-33-|    |-444444444-44-44-44-44-|
 |-----------------------| x3 |-----------------------|

 |-------------|    
 |-------------|    
 |-------------|    
 |-555555555\\-|   
 |-333333333\\-|
 |-------------|

 END


 *I don't know the solo part yet, but I'll get it soon.
 
 Legend:
 S - 16th
 T - 32nd 
 \ - slide down
 ~ - let note(s) ring
 b - bend
Добавлено: 17.07.2012
Другие материалы по этой песне:
  • Аккорды и текст

Страница создана 17.07.2012
http://primanota.ru/silent-civilian/treatment-chords.htm
Привет, Гость.
Предлагаем пройти революционный курс по гитаре.
Подарок от PrimaNota.Ru, забирай!