PrimaNota.ru - самый крупный в мире бесплатный архив песенных текстов, аккордов, табулатур и нот


Silent Civilian - Song Remains Un-named - таба, бас-таба, видео

Регистрация Запомнить меня
Войти через:  Facebook Google Twitter Vk Yandex Mail.ru

Silent Civilian - Song Remains Un-named - таба, бас-таба, видео

Печатать
Просмотров: 251
From Rebirth Of The Temple: Track nº3

Intro:
D|--------------------------------------------------------------------|
A|--------------------------------------------------------------------|
F|-------7-8-7h8p7-------------5-7------8-7-7h8p7---------------5-7---|
C|--5~-5------------8h10--5-7-8-----0~-0------------8h10--5-7-8-------|
G|--5~-5----------------------------0~-0------------------------------|
C|--5~-5----------------------------0~-0------------------------------|
                                                                        x3
D|--------------------------------------------------------------------|
A|---------------7*---------------------------------------------------|
F|--------------------------------------------------------------------|
C|--1~-1---5-7-5----7-5-8*7-5------3~-3-3~4~-4-4~---------------------|
G|--1~-1---------------------------3~-3-3~4~-4-4~---------------------|
C|--1~-1---------------------------3~-3-3~4~-4-4~---------------------|

Riff 1:
D|--------------------------------------------------------------------|
A|--------------------------------------------------------------------|
F|--------------------------------------------------------------------|
C|--0--------------11\10-8-8/10--0------------------------------------|
G|--0(00-000-0-000)-9\-8-6-6/-8--0(00-000-0-000)-4\3-1-1/3------------|
C|--0-00-000-0-000---------------0-00-000-0-000--4\3-1-1/3------------|
      .. ... . ...                 .. ... . ...                        x2

D|------------------------------------------------------------|-------|
A|------------------------------------------------------------|-------|
F|------------------------------------------------------------|-------|
C|--0--------------11\10-8-8/10--0-------------------3-3------|-------|
G|--0(00-000-0-000)-9\-8-6-6/-8--0(00-000-0-000)-4\3-1-1------|--00---|
C|--0-00-000-0-000---------------0-00-000-0-000--4\3----------|--00---|
      .. ... . ...                 .. ... . ...                  ..     

Pre-verse:
D|--------------------------------------------------------------------|
A|--------------------------------------------------------------------|
F|--------------------6-6666666---------------------------------------|
C|--0~----2~----3~----6-6666666---------------------------------------|
G|--0~----2~----3~----4-4444444---------------------------------------|x2
C|--0~----2~----3~----------------------------------------------------|

Verse:
D|--------------------------------------------------------------------|
A|--------------------------------------------------------------------|
F|--------------------------------------------------------------------|
C|--------------------------------------------------------------------|
G|--5---7---8---4---5---7---5---7---5---7---8---4---5---7---5---7-----|
C|----0---0---0---0---0---0---0---0---0---0---0---0---0---0---0-------|
      .   .   .   .   .   .   .   .   .   .   .   .   .   .   .         x2

D|--------------------------------------------------------------------|
A|--------------------------------------------------------------------|
F|--------------------------------------------------------------------|
C|--------------------------------------------------6-666666----------|
G|--5---7---8---4---5---7---5---7---5---7---8---4---4-444444----------|
C|----0---0---0---0---0---0---0---0---0---0---0-----------------------|
      .   .   .   .   .   .   .   .   .   .   .

Riff 2:
D|------------------------------------------------------|-------------|
A|------------------------------------------------------|-------------|
F|------------------------------------------------------|-------------|
C|-----------------------------------------------x4-----|-----0~------|
G|--------------------5h8p5h8p5h8--4h7p4h7p4h7----------|-----0~------|
C|--0000000000000000------------------------------------|-----0~------|

Riff 3:
D|--------------------------------------------------------------------|
A|--------------------------------------------------------------------|
F|--------------------------------------------------------------------|
C|--0~-----------1-3-4~-----------1-3-4~-----------1-3-6~-------------| x2
G|--0~-000000000-1-3-4~-000000000-1-3-4~-000000000-1-3-6~-666666666---|
C|--0~-000000000-1-3-4~-000000000-1-3-4~-000000000-1-3-6~-666666666---|

Fill:
D|-------------------|
A|-------------------|
F|------------5------|
C|--------5-6---6-5--|
G|--5-6-8------------|
C|-------------------|

Chorus:
D|--------------------------------------------------------------------|
A|--------------------------------------------------------------------|
F|--------------------------------------------------------------------|
C|--5~--5----0~--0----1~--1----3~--3----3~4~--4----4~-----------------|x2
G|--5~--5----0~--0----1~--1----3~--3----3~4~--4----4~-----------------|
C|--5~--5----0~--0----1~--1----3~--3----3~4~--4----4~-----------------|

D|--------------------------------------------------------------------|
A|--------------------------------------------------------------------|
F|-------7-8-7h8p7-------------5-7------8-7-7h8p7---------------5-7---|
C|--5~-5------------8h10--5-7-8-----0~-0------------8h10--5-7-8-------|
G|--5~-5----------------------------0~-0------------------------------|
C|--5~-5----------------------------0~-0------------------------------|
                                                                        x1
D|--------------------------------------------------------------------|
A|---------------7*---------------------------------------------------|
F|--------------------------------------------------------------------|
C|--1~-1---5-7-5----7-5-8*7-5------3~-3-3~4~-4-4~---------------------|
G|--1~-1---------------------------3~-3-3~4~-4-4~---------------------|
C|--1~-1---------------------------3~-3-3~4~-4-4~---------------------|

Riff 1:
D|--------------------------------------------------------------------|
A|--------------------------------------------------------------------|
F|--------------------------------------------------------------------|
C|--0--------------11\10-8-8/10--0------------------------------------|
G|--0(00-000-0-000)-9\-8-6-6/-8--0(00-000-0-000)-4\3-1-1/3------------|
C|--0-00-000-0-000---------------0-00-000-0-000--4\3-1-1/3------------|
      .. ... . ...                 .. ... . ...                        x2

D|------------------------------------------------------------|-------|
A|------------------------------------------------------------|-------|
F|------------------------------------------------------------|-------|
C|--0--------------11\10-8-8/10--0-------------------3-3------|-------|
G|--0(00-000-0-000)-9\-8-6-6/-8--0(00-000-0-000)-4\3-1-1------|--00---|
C|--0-00-000-0-000---------------0-00-000-0-000--4\3----------|--00---|
      .. ... . ...                 .. ... . ...                  ..       

{SOLO 1 WITH ACOUSTIC BACKGROUND}


SOLO 2 WITH THIS ELECTRIC BACKGROUND:
D|--------------------------------------------------------------------|
A|--------------------------------------------------------------------|
F|----------------------5~--------3~----------------------------------|
C|--0~--------3~--------5~--------3~----------------------------------|x4
G|--0~--------3~--------3~--------1~----------------------------------|
C|--0~--------3~------------------------------------------------------|

Back to Pre-Verse:
D|--------------------------------------------------------------------|
A|--------------------------------------------------------------------|
F|--------------------6-6666666---------------------------------------|
C|--0~----2~----3~----6-6666666---------------------------------------|
G|--0~----2~----3~----4-4444444---------------------------------------|x1
C|--0~----2~----3~----------------------------------------------------|

Verse:
D|--------------------------------------------------------------------|
A|--------------------------------------------------------------------|
F|--------------------------------------------------------------------|
C|--------------------------------------------------------------------|
G|--5---7---8---4---5---7---5---7---5---7---8---4---5---7---5---7-----|
C|----0---0---0---0---0---0---0---0---0---0---0---0---0---0---0-------|
      .   .   .   .   .   .   .   .   .   .   .   .   .   .   .         x2
D|--------------------------------------------------------------------|
A|--------------------------------------------------------------------|
F|--------------------------------------------------------------------|
C|--------------------------------------------------6-666666----------|
G|--5---7---8---4---5---7---5---7---5---7---8---4---4-444444----------|
C|----0---0---0---0---0---0---0---0---0---0---0-----------------------|
      .   .   .   .   .   .   .   .   .   .   .

Riff 2:
D|-----------------------------------------------|--------------------|
A|-----------------------------------------------|--------------------|
F|-----------------------------------------------|--------------------|
C|-----------------------------------------------|---0~---------------|x4
G|--------------------5h8p5h8p5h8--4h7p4h7p4h7---|---0~---------------|
C|--0000000000000000-----------------------------|---0~---------------|

Riff 3:
D|--------------------------------------------------------------------|
A|--------------------------------------------------------------------|
F|--------------------------------------------------------------------|
C|--0~-----------1-3-4~-----------1-3-4~-----------1-3-6~-------------| x2
G|--0~-000000000-1-3-4~-000000000-1-3-4~-000000000-1-3-6~-666666666---|
C|--0~-000000000-1-3-4~-000000000-1-3-4~-000000000-1-3-6~-666666666---|

Fill:
D|-------------------|
A|-------------------|
F|------------5------|
C|--------5-6---6-5--|
G|--5-6-8------------|
C|-------------------|

Chorus:
D|--------------------------------------------------------------------|
A|--------------------------------------------------------------------|
F|--------------------------------------------------------------------|
C|--5~--5----0~--0----1~--1----3~--3----3~4~--4----4~-----------------|x2
G|--5~--5----0~--0----1~--1----3~--3----3~4~--4----4~-----------------|
C|--5~--5----0~--0----1~--1----3~--3----3~4~--4----4~-----------------|

D|--------------------------------------------------------------------|
A|--------------------------------------------------------------------|
F|-------7-8-7h8p7-------------5-7------8-7-7h8p7---------------5-7---|
C|--5~-5------------8h10--5-7-8-----0~-0------------8h10--5-7-8-------|
G|--5~-5----------------------------0~-0------------------------------|
C|--5~-5----------------------------0~-0------------------------------|
                                                                       x4
D|--------------------------------------------------------------------|
A|---------------7*---------------------------------------------------|
F|--------------------------------------------------------------------|
C|--1~-1---5-7-5----7-5-8*7-5------3~-3-3~4~-4-4~---------------------|
G|--1~-1---------------------------3~-3-3~4~-4-4~---------------------|
C|--1~-1---------------------------3~-3-3~4~-4-4~---------------------|

End:
D|-------------|
A|-------------|
F|-------------|
C|--5~-5\\\----|
G|--5~-5\\\----|
C|--5~-5\\\----|
Добавлено: 04.04.2012
Другие материалы по этой песне:

Страница создана 29.03.2012
http://primanota.ru/silent-civilian/song-remains-un-named-chords.htm
Привет, Гость.
Предлагаем пройти революционный курс по гитаре.
Подарок от PrimaNota.Ru, забирай!