PrimaNota.ru - самый крупный в мире бесплатный архив песенных текстов, аккордов, табулатур и нот


Silent Civilian - Funeral - таба, бас-таба, видео

Регистрация Запомнить меня
Войти через:  Facebook Google Twitter Vk Yandex Mail.ru

Silent Civilian - Funeral - таба, бас-таба, видео

Печатать
Просмотров: 205
----------------------------------------------------------------------------
                             funeral - silent civilian
----------------------------------------------------------------------------

Tabbed by: sean crow
Email:  die_for_nothing_323@hotmail.com   ****PLEASE RATE AND COMMENT****

Tuning:  DADGBe        Thats one more 'SC' tab to you, from me, im goin 
                         to be finished with "blood red sky" soon and then
    EDITED                 il move on to "live again" so theyl be here soon!

e|-------------------------------------------------|-----------| 
B|-------------------------------------------------|           |
G|-------------------------------------------------|           |
D|-5---5---7/8-5----------5---5---7/8-4------------|           |
A|-3-0-3-0-5/6-3----------3-0-3-0-5/6-2------------|           |
E|---0---0-------00-00-00---0---0-------00-00-00---|           |
     .   .       .. .. ..   .   .       .. .. ..      Play     |
e|-------------------------------------------------|     2x    | 
B|-------------------------------------------------|           |
G|-------------------------------------------------|           |
D|-5---5---7/8-5----------5---5---7/8-5-8-7-8------|           |
A|-3-0-3-0-5/6-3----------3-0-3-0-5/6-3-6-5-6------|           |
E|---0---0-------00-00-00---0---0------------------|-----------|
     .   .       .. .. ..   .   .    
e|---------------------------------|
B|---------------------------------|
G|---------------------------------|
D|-0~~-3~~-33333333--0~~-3~~-5-6-3-|   Play 
A|-0~~-3~~-33333333--0~~-3~~-5-6-3-|     2x 
E|-0~~-3~~-33333333--0~~-3~~-5-6-3-|
           ........
e|----------------------------------------------------------|----------|
B|----------------------------------------------------------|          |
G|-------------------------7*----------------------------8*-|          |
D|----------------------------------------8-7-5-------------|          |
A|----6---5----8---6---5---------6---5----------8-7-5-7-----|          |
E|-00---0---00---0---0---0----00---0---00-------------------|          |
   ..   .   ..   .   .   .    ..   .   ..                       Play   |
e|----------------------------------------------------------|     6x   |
B|----------------------------------------------------------|          | 
G|-------------------------7*-------------------------------|          |
D|----------------------------------------8888-7777---------|          |
A|----6---5----8---6---5---------6---5----8888-7777---------|          |
E|-00---0---00---0---0---0----00---0---00-8888-7777---------|----------|
   ..   .   ..   .   .   .    ..   .   ..
e|---------------------------------------------|
B|---------------------------------------------|
G|----9-----9----9-----9----7-----7----7-----7-|
D|-77-7-777-7-77-7-777-7-55-5-555-5-55-5-555-5-|  Play 2x
A|-77---777---77---777---55---555---55---555---|
E|-77---777---77---777---55---555---55---555---|

e|--------------------------------------|
B|--------------------------------------|
G|--------------------------------------|
D|-22222222-00000000-33333333-1111-0000-|   Play 4x
A|-22222222-00000000-33333333-1111-0000-|
E|-22222222-00000000-33333333-1111-0000-|

e|-------------------------------------------------| 
B|-------------------------------------------------|           
G|-------------------------------------------------|           
D|-5---5---7/8-5----------5---5---7/8-4------------|           
A|-3-0-3-0-5/6-3----------3-0-3-0-5/6-2------------|           
E|---0---0-------00-00-00---0---0-------00-00-00---|           
     .   .       .. .. ..   .   .       .. .. ..      
e|-------------------------------------------------------------|     
B|-------------------------------------------------------------|           
G|------------------------------------8-7-5--------------------|           
D|-5---5---7/8-5----------5---5---7/8-------8-7-5--------------|           
A|-3-0-3-0-5/6-3----------3-0-3-0-5/6-------------8-7-5-3-2-0--|           
E|---0---0-------00-00-00---0---0------------------------------|
     .   .       .. .. ..   .   .  

e|------------------|
B|------------------|
G|------------------|
D|-000-0-000-0--/9\-|
A|-000-0-000-0--/9\-|
E|-000-0-000-0--/9\-|
   ... . ... .
e|----------------------------------------------------------|
B|----------------------------------------------------------|          
G|-------------------------7*----------------------------8*-|          
D|----------------------------------------8-7-5-------------|          
A|----6---5----8---6---5---------6---5----------8-7-5-7-----|          
E|-00---0---00---0---0---0----00---0---00-------------------|          
   ..   .   ..   .   .   .    ..   .   ..                       
e|----------------------------------------------------------|     
B|----------------------------------------------------------|           
G|-------------------------7*-------------------------------|          
D|----------------------------------------8888-7777---------|          
A|----6---5----8---6---5---------6---5----8888-7777---------|          
E|-00---0---00---0---0---0----00---0---00-8888-7777---------|
   ..   .   ..   .   .   .    ..   .   ..
e|------------------------------|
B|------------------------------|
G|------------------------------|
D|-5~~-6~~-8-6-8--5~~-3~~-6-8-6-|
A|-5~~-6~~-8-6-8--5~~-3~~-6-8-6-|
E|-5~~-6~~-8-6-8--5~~-3~~-6-8-6-|

e|---------------------------------------------|
B|---------------------------------------------|
G|----9-----9----9-----9----7-----7----7-----7-|
D|-77-7-777-7-77-7-777-7-55-5-555-5-55-5-555-5-|  Play 2x
A|-77---777---77---777---55---555---55---555---|
E|-77---777---77---777---55---555---55---555---|

e|--------------------------------------|
B|--------------------------------------|
G|--------------------------------------|
D|-22222222-00000000-33333333-1111-0000-|   Play 4x
A|-22222222-00000000-33333333-1111-0000-|
E|-22222222-00000000-33333333-1111-0000-|

e|--------------------------------------------------------|
B|--------------------------------------------------------|
G|--------------------------------------------------------|
D|-------------3------------3------------6-6666--6-66-5-3-|
A|-00-00-00-00-3-0000-00-00-3-0000-00-00-6-6666--6-66-5-3-|
E|-00-00-00-00-3-0000-00-00-3-0000-00-00-6-6666--6-66-5-3-|
   .. .. .. ..   .... .. ..   .... .. ..

     This is where the solo starts (only the backing here though)

e|--------------------------------------------------------|
B|--------------------------------------------------------|
G|--------------------------------------------------------|
D|-------------3------------3------------6-6666--6-66-5-3-| Play x6
A|-00-00-00-00-3-0000-00-00-3-0000-00-00-6-6666--6-66-5-3-|
E|-00-00-00-00-3-0000-00-00-3-0000-00-00-6-6666--6-66-5-3-|
   .. .. .. ..   .... .. ..   .... .. ..
e|-------------------------|
B|-------------------------|
G|-------------------------|
D|-0-----2-----5-----3-----|  Play 4x    
A|-0-x16-2-x16-5-x16-3-x16-|
E|-0-----2-----5-----3-----|
   .     .     .     .
 
                     ***This is where the solo ends***

e|--------------------------------------------------------|
B|--------------------------------------------------------|
G|--------------------------------------------------------|
D|-------------3------------3------------6-6666--6-66-5-3-| Play 2x
A|-00-00-00-00-3-0000-00-00-3-0000-00-00-6-6666--6-66-5-3-|
E|-00-00-00-00-3-0000-00-00-3-0000-00-00-6-6666--6-66-5-3-|
   .. .. .. ..   .... .. ..   .... .. ..
e|-------------------------------------------------| 
B|-------------------------------------------------|           
G|-------------------------------------------------|           
D|-5---5---7/8-5----------5---5---7/8-4------------|           
A|-3-0-3-0-5/6-3----------3-0-3-0-5/6-2------------|           
E|---0---0-------00-00-00---0---0-------00-00-00---|           
     .   .       .. .. ..   .   .       .. .. ..      
e|-------------------------------------------------|     
B|-------------------------------------------------|           
G|-------------------------------------------------|           
D|-5---5---7/8-5----------5---5---7/8-5-8-7-8------|           
A|-3-0-3-0-5/6-3----------3-0-3-0-5/6-3-6-5-6------|           
E|---0---0-------00-00-00---0---0------------------|
     .   .       .. .. ..   .   . 
e|-------------------------------------------------| 
B|-------------------------------------------------|           
G|-------------------------------------------------|           
D|-5---5---7/8-5----------5---5---7/8-4------------|           
A|-3-0-3-0-5/6-3----------3-0-3-0-5/6-2------------|           
E|---0---0-------00-00-00---0---0-------00-00-00---|           
     .   .       .. .. ..   .   .       .. .. ..      
e|---------------------------------------------|     
B|---------------------------------------------|           
G|-------------------------------------8-7-5---|           
D|-5---5---7/8-5----------5---5---7/8--------8-|           
A|-3-0-3-0-5/6-3----------3-0-3-0-5/6----------|           
E|---0---0-------00-00-00---0---0--------------|
     .   .       .. .. ..   .   . 
e|--------------------------------------|
B|--------------------------------------|
G|--------------------------------------|
D|-22222222-00000000-33333333-1111-0000-|   Play 4x
A|-22222222-00000000-33333333-1111-0000-|
E|-22222222-00000000-33333333-1111-0000-|

e|----------------------------------------------------------------|
B|----------------------------------------------------------------|
G|----------------------------------------------------------------|
D|-55555555-33333333-22222222-4444-3333-55555555-33333333-2-2-2-2-|
A|-55555555-33333333-22222222-4444-3333-55555555-33333333-2-2-2-2-|
E|-55555555-33333333-22222222-4444-3333-55555555-33333333-2-2-2-2-|

e|-----------------------------------------------------------|
B|-----------------------------------------------------------|
G|-----------------------------------------------------------|
D|-55555555-33333333-22222222-4444-3333-55555555-33333333-2~~|
A|-55555555-33333333-22222222-4444-3333-55555555-33333333-2~~|
E|-55555555-33333333-22222222-4444-3333-55555555-33333333-2~~|
                                                          
e|----------------------------------------------------------|
B|----------------------------------------------------------|          
G|-------------------------7*----------------------------8*-|          
D|----------------------------------------8-7-5-------------|          
A|----6---5----8---6---5---------6---5----------8-7-5-7-----|          
E|-00---0---00---0---0---0----00---0---00-------------------|          
   ..   .   ..   .   .   .    ..   .   ..                       
e|----------------------------------------------------------|     
B|----------------------------------------------------------|           
G|-------------------------7*-------------------------------|          
D|----------------------------------------8888-7777---------|          
A|----6---5----8---6---5---------6---5----8888-7777---------|          
E|-00---0---00---0---0---0----00---0---00-8888-7777---------|
   ..   .   ..   .   .   .    ..   .   ..
e|----------------------------------------------------------|
B|----------------------------------------------------------|          
G|-------------------------7*----------------------------8*-|          
D|----------------------------------------8-7-5-------------|          
A|----6---5----8---6---5---------6---5----------8-7-5-7-----|          
E|-00---0---00---0---0---0----00---0---00-------------------|          
   ..   .   ..   .   .   .    ..   .   ..                       
e|----------------------------------------------------------------| 
B|----------------------------------------------------------------|    
G|-------------------------7*-------------8-7-5-------------------|         
D|----------------------------------------------8-7-5-------------|         
A|----6---5----8---6---5---------6---5----------------8-7-5-3-2-0-|         
E|-00---0---00---0---0---0----00---0---00-------------------------|
   ..   .   ..   .   .   .    ..   .   ..

e|------------------------------------------|
B|------------------------------------------|
G|------------------------------------------|   THE END!!!!
D|-000-0-000-0--0~~~~~~~~~~~~~~~~~~~~~~~~~~~|
A|-000-0-000-0--0~~~~~~~~~~~~~~~~~~~~~~~~~~~|
E|-000-0-000-0--0~~~~~~~~~~~~~~~~~~~~~~~~~~~|
Добавлено: 19.04.2012
Другие материалы по этой песне:

Страница создана 14.03.2012
http://primanota.ru/silent-civilian/funeral-chords.htm
Привет, Гость.
Предлагаем пройти революционный курс по гитаре.
Подарок от PrimaNota.Ru, забирай!