PrimaNota.ru - самый крупный в мире бесплатный архив песенных текстов, аккордов, табулатур и нот


Silence - Beautiful Nightmare - таба, видео

Регистрация Запомнить меня
Войти через:  Facebook Google Twitter Vk Yandex Mail.ru

Silence - Beautiful Nightmare - таба, видео

Печатать
Просмотров: 87
----------------------------------------------------------------------------
                          The Silence - Beautiful Nightmare
----------------------------------------------------------------------------
Tabbed by: Jaime Díaz   
Email: juanjaime_x41@hotmail.com

This is a great band, If you wanna hear them or get their album
check www.purevolume.com/thesilence or www.thesilencemusic.com

Tuning: EADGBe
| \  slide 
| h  hammer-on
| p  pull-off
| ~  ring note
| b  bend note
| .  Mute note


intro
|----------------------------------------------------------------|
|----------------------------------------------------------------|
|--------9-----7\7-----5/7-7-7-7---------------------------------|
|--------9-----7\7-----5/7-7-7-7---------------------------------|
|--------7-----9\5-----3/5-5-5-5---------------------------------|
|-000-00--0000----0000-------------------------------------------|
  ... ..  ....    ....

|----------------------------------------------------------------|
|----------------------------------------------------------------|
|--------12-----12/11-----5\7-7-7-7--7-7-7--7-7-7--7-7-7/9-------|
|---------x------x/-x-----5\7-7-7-7--7-7-7--7-7-7--7-7-7/9-------|
|--------10-----10/-9-----3\5-5-5-5--5-5-5--5-5-5--5-5-5/7-------|
|-000-00---0000------0000----------------------------------------|
  ... ..   ....      ....

verse
|--------------------------------------------------|
|--------------------------------------------------|
|-9-9-9-9-9-9-12-12-12--7-7-7-7-7-7-12-12-12-------|
|-9-9-9-9-9-9--x--x--x--7-7-7-7-7-7--x--x--x-------|
|-7-7-7-7-7-7-10-10-10--5-5-5-5-5-5-10-10-10-------|
|--------------------------------------------------|

|--------------------------------------------------|
|--------------------------------------------------|
|-5-5-5-5-5-5-12-12-12--14-14-14-14-15-15-15-15----|
|-5-5-5-5-5-5--x--x--x---x--x--x--x--x--x--x--x----|
|-3-3-3-3-3-3-10-10-10--12-12-12-12-13-13-13-13----|
|--------------------------------------------------|


|--------------------------------------------------|
|--------------------------------------------------|
|-9-9-9-9-9-9-12-12-12-14-14-14-14-14-14-14-14-----|
|-9-9-9-9-9-9--x--x--x--x--x--x--x--x--x--x--x-----|
|-7-7-7-7-7-7-10-10-10-12-12-12-12-12-12-12-12-----|
|--------------------------------------------------|

|--------------------------------------------------|
|--------------------------------------------------|
|-5-5-5-5-5-5-5-5-12-12-12-12-12-14-14-14-14-14----|
|-5-5-5-5-5-5-5-5--x--x--x--x--x--x--x--x--x--x----|
|-3-3-3-3-3-3-3-3-10-10-10-10-10-12-12-12-12-12----|
|--------------------------------------------------|



After verse
|------------------------------------------------|
|------------------------------------------------|
|--------9---7---5/77------7---8---9-9-----------|
|--------9---7---5/77------7---7---9-9-----------|
|--------7---5---3/55------5---6---7-7-----------|
|-000-00--00--00------0000--00--00---------------|
  ... ..  ..  ..      ....  ..  ..

Chorus
|-------------------------------------------------------------|
|----(x6)-----------------------------------------------------|
|-9-12-11h12p11----9-12-11h12p11-14-12-9-12-11h12p11----------|
|-------------------------------------------------------------|
|-------------------------------------------------------------|
|-------------------------------------------------------------|


After Chorus
|--------------------------------------------------------------------------|
|--------------------------------------------------------------------------|
|------9---9--9-9------7---7---7-7------5---5---5-5------14-14-----15-15---|
|------9---9--9-9------7---7---7-7------5---5---5-5-------x--x------x--x---|
|------7---7--7-7------5---5---5-5------3---3---3-3------12-12-----13-13---|
|-0000--00--00----0000--00--00-----0000--00--00-----0000------0000---------|
  ....  ..  ..    ....  ..  ..     ....  ..  ..     ....      ....

Verse
|--------------------------------------------------|
|--------------------------------------------------|
|-9-9-9-9-9-9-12-12-12--7-7-7-7-7-7-12-12-12-------|
|-9-9-9-9-9-9--x--x--x--7-7-7-7-7-7--x--x--x-------|
|-7-7-7-7-7-7-10-10-10--5-5-5-5-5-5-10-10-10-------|
|--------------------------------------------------|

|--------------------------------------------------|
|--------------------------------------------------|
|-5-5-5-5-5-5-12-12-12--14-14-14-14-15-15-15-15----|
|-5-5-5-5-5-5--x--x--x---x--x--x--x--x--x--x--x----|
|-3-3-3-3-3-3-10-10-10--12-12-12-12-13-13-13-13----|
|--------------------------------------------------|

|--------------------------------------------------|
|--------------------------------------------------|
|-9-9-9-9-9-9-12-12-12--7-7-7-7-7-7-12-12-12-------|
|-9-9-9-9-9-9--x--x--x--7-7-7-7-7-7--x--x--x-------|
|-7-7-7-7-7-7-10-10-10--5-5-5-5-5-5-10-10-10-------|
|--------------------------------------------------|

|--------------------------------------------------|
|--------------------------------------------------|
|-5-5-5-5-5-5-12-12-12--14-14-14-14-15-15-15-15----|
|-5-5-5-5-5-5--x--x--x---x--x--x--x--x--x--x--x----|
|-3-3-3-3-3-3-10-10-10--12-12-12-12-13-13-13-13----|
|--------------------------------------------------|


|--------------------------------------------------|
|--------------------------------------------------|
|-9-9-9-9-9-9-12-12-12-14-14-14-14-14-14-14-14-----|
|-9-9-9-9-9-9--x--x--x--x--x--x--x--x--x--x--x-----|
|-7-7-7-7-7-7-10-10-10-12-12-12-12-12-12-12-12-----|
|--------------------------------------------------|

|--------------------------------------------------|
|--------------------------------------------------|
|-5-5-5-5-5-5-5-5-12-12-12-12-12-14-14-14-14-14----|
|-5-5-5-5-5-5-5-5--x--x--x--x--x--x--x--x--x--x----|
|-3-3-3-3-3-3-3-3-10-10-10-10-10-12-12-12-12-12----|
|--------------------------------------------------|


Chorus
|-------------------------------------------------------------|
|----(x6)-----------------------------------------------------|
|-9-12-11h12p11----9-12-11h12p11-14-12-9-12-11h12p11-12~------|
|-------------------------------------------------------------|
|-------------------------------------------------------------|
|-------------------------------------------------------------|


Interlude
|--------------------------------|
|-------(x3)---------------------|
|-9~--12~--7-7-7-7-7-7-----------|
|-9~---x---7-7-7-7-7-7-----------|
|-7~--10~--5-5-5-5-5-5-----------|
|--------------------------------|

|-----------------------------------------------------b12-----|
|---------10-8-10-8-10-8-b10-10-8-8-10-8-10-8-10-b10----------|
|-9~--12~-------------------------------------------11--------|
|-9~---x------------------------------------------------------|
|-7~--10~-----------------------------------------------------|
|-------------------------------------------------------------|

|----------------------------------------------------14p12----|
|-8-10-8-10-10-11-10-11-11-13-11-13-14p11-13p11-14p11---------|
|-------------------------------------------------------------|
|-------------------------------------------------------------|
|-------------------------------------------------------------|
|-------------------------------------------------------------|


Chorus
|-------------------------------------------------------------|
|----(x6)-----------------------------------------------------|
|-9-12-11h12p11----9-12-11h12p11-14-12-9-12-11h12p11-12~------|
|-------------------------------------------------------------|
|-------------------------------------------------------------|
|-------------------------------------------------------------|

Outro
|------------------------------------------------|
|------------------------------------------------|
|--------9---7---5/77------7---8---9-9-----------|
|--------9---7---5/77------7---7---9-9-----------|
|--------7---5---3/55------5---6---7-7-----------|
|-000-00--00--00------0000--00--00---------------|
  ... ..  ..  ..      ....  ..  ..

Have fun. :)
Добавлено: 25.02.2012
Другие материалы по этой песне:
  • Аккорды и текст

Страница создана 25.02.2012
http://primanota.ru/silence/beautiful-nightmare-chords.htm
Привет, Гость.
Предлагаем пройти революционный курс по гитаре.
Подарок от PrimaNota.Ru, забирай!