PrimaNota.ru - самый крупный в мире бесплатный архив песенных текстов, аккордов, табулатур и нот


Silbermond - Nichts Passiert - таба, видео

Регистрация Запомнить меня
Войти через:  Facebook Google Twitter Vk Yandex Mail.ru

Silbermond - Nichts Passiert - таба, видео

Печатать
Просмотров: 201
Уроки эстрадного вокала в Санкт-Петербурге
Silbermond - Nichts passiert
e-mail: avrill_xx@yahoo.com

The second guitar is supposed to bass I think

INTRO
e|--------------------------------------|
B|--------------------------------------|
G|------------------------------9----7--| x3
D|-----9-----9-----9-----9--------------|
A|---7-----7-----7-----7-----7----7-----|
E|-0-----0-----0-----0------------------|

e|------------------------------|
B|------------------------------|
G|------------------------------| 
D|-----9-----9-----9-----9---7--|
A|---7-----7-----7-----7--------|
E|-0-----0-----0-----0----------|

e|--------------------------------------|
B|--------------------------------------|
G|------------------------------9----7--| x3
D|-----9-----9-----9-----9--------------|
A|---7-----7-----7-----7-----7----7-----|
E|-0-----0-----0-----0------------------|

e|-------------------------------|
B|--------8-8-------8-8------8---|
G|--------9-9-------9-9------9---| 
D|---9-9---------------------9---|
A|---7-7-------7-7-------7-7-----|
E|-------------------------------|


VERSE (no guitar except this)
passt auf...
e|---8---7-------|
B|---10--8-------|
G|---9---9---9---| 
D|-----------9---|
A|-----------7---|
E|---------------|

wer's glaubt...
e|---8---7-------|
B|---10--8-------|
G|---9---9---9---| 
D|-----------9---|
A|-----------7---|
E|---------------|

e|----------------------------|
B|----------------------------|
G|----9---9--9-9-9-9-9-9-9-9--|
D|----9---9--9-9-9-9-9-9-9-9--|
A|--7-7-7-7--7-7-7-7-7-7-7-7--|
E|----------------------------|

CHORUS
guitar 1
e|-----------------------------------|
B|-----------------------------------|
G|--9-9-9-9-9-9-9-9------------------|
D|--9-9-9-9-9-9-9-9--7-7-7-7-7-7-7-7-|
A|--7-7-7-7-7-7-7-7--7-7-7-7-7-7-7-7-|
E|-------------------5-5-5-5-5-5-5-5-|

guitar 2
e|--------------------------------|
B|--------------------------------|
G|--------------------------------| 
D|-----9-----9-----9-----9----9---|
A|---7-----7-----7-----7----7-----|
E|-0-----0-----0-----0----0-----0-|


e|--------------------------------|
B|--------------------------------|
G|--------------------------------| 
D|-----7-----7-----7-----7----7---|
A|---7-----7-----7-----7----7-----|
E|-5-----5-----5-----5----5-----5-|

guitar 1
e|-----------------------------------|
B|-----------------------------------|
G|-------------------9-9-9-9-9-9-9-9-|
D|--9-9-9-9-9-9-9-9--9-9-9-9-9-9-9-9-|
A|--9-9-9-9-9-9-9-9--7-7-7-7-7-7-7-7-|
E|--7-7-7-7-7-7-7-7------------------|

guitar 2
e|--------------------------------|
B|--------------------------------|
G|--------------------------------| 
D|-----9-----9-----9-----9----9---|
A|---9-----9-----9-----9----9-----|
E|-7-----7-----7-----7----7-----7-|

e|--------------------------------|
B|--------------------------------|
G|--------------------------------| 
D|-----9-----9-----9-----9----9---|
A|---7-----7-----7-----7----7-----|
E|-0-----0-----0-----0----0-------|

guitar 1
e|------------------|
B|------------------|
G|---9-9-9-9-9-9-9--|
D|---9-9-9-9-9-9-9--|
A|---7-7-7-7-7-7-7--|
E|------------------|
pm...................

e|-----------------------------------|
B|-----------------------------------|
G|--9-9-9-9-9-9-9-9------------------|
D|--9-9-9-9-9-9-9-9--7-7-7-7-7-7-7-7-|
A|--7-7-7-7-7-7-7-7--7-7-7-7-7-7-7-7-|
E|-------------------5-5-5-5-5-5-5-5-|

guitar 2
e|--------------------------------|
B|--------------------------------|
G|--------------------------------| 
D|-----9-----9-----9-----9----9---|
A|---7-----7-----7-----7----7-----|
E|-0-----0-----0-----0----0-----0-|


e|--------------------------------|
B|--------------------------------|
G|--------------------------------| 
D|-----7-----7-----7-----7----7---|
A|---7-----7-----7-----7----7-----|
E|-5-----5-----5-----5----5-----5-|

guitar 1
e|-------------------------------------------------|
B|-------------------------------------------------|
G|-------------------8-8-8-8-8-8-8-9-9-9-9-9-9-9-9-|
D|--9-9-9-9-9-9-9-9--8-8-8-8-8-8-8-9-9-9-9-9-9-9-9-|
A|--9-9-9-9-9-9-9-9--6-6-6-6-6-6-6-7-7-7-7-7-7-7-7-|
E|--7-7-7-7-7-7-7-7--------------------------------|

guitar 2
e|---------------------------------------|
B|---------------------------------------|
G|-----------------------8-----8---------| 
D|-----9-----9---------8-----8-----8-----|
A|---9-----9-----9---6-----6-----6-------|
E|-7-----7-----7-------------------------|

aber nichts passiert
guitar 1 
e|---------------------|
B|---------------------|
G|---9-9--9-9-9-9-9-9--|
D|---9-9--9-9-9-9-9-9--|
A|---7-7--7-7-7-7-7-7--|
E|---------------------|

INTERLUDE
e|--------------------------------------|
B|--------------------------------------|
G|------------------------------9----7--| x3
D|-----9-----9-----9-----9--------------|
A|---7-----7-----7-----7-----7----7-----|
E|-0-----0-----0-----0------------------|

e|-------------------------------|
B|--------8-8-------8-8------8---|
G|--------9-9-------9-9------9---| 
D|---9-9---------------------9---|
A|---7-7-------7-7-------7-7-----|
E|-------------------------------|


VERSE
Das ist nur...
e|---8---7-------|
B|---10--8-------|
G|---9---9---9---| 
D|-----------9---|
A|-----------7---|
E|---------------|

e|--------------|
B|--10-8------8-|
G|-------9-7----|
D|--------------|
A|--------------|
E|--------------|

hier ist nur...
e|---8---7-------|
B|---10--8-------|
G|---9---9---9---| 
D|-----------9---|
A|-----------7---|
E|---------------|

e|----------------------------|
B|----------------------------|
G|----9---9--9-9-9-9-9-9-9-9--|
D|----9---9--9-9-9-9-9-9-9-9--|
A|--7-7-7-7--7-7-7-7-7-7-7-7--|
E|----------------------------|

CHORUS

BRIDGE
e|------------------------------------------------------------|
B|-------10-10----10-10----10-------10-10-------10-10------10-|
G|-------x--x-----x--x-----x--------x--x--------x--x-------x--| 
D|-------7--7-----7--7-----7---0-0--7--7---0-0--7--7--0-0--7--|
A|---7-7------7-7------7-7------------------------------------|
E|------------------------------------------------------------|

e|-------------------------------------------|
B|-------------------------------------------|
G|-------------------------------------------|
D|--10-10-10-10-10-10-10-10--9-9-9-9-9-9-9-9-|
A|--10-10-10-10-10-10-10-10--9-9-9-9-9-9-9-9-|
E|--8--8--8--8--8--8--8--8---7-7-7-7-7-7-7-7-|

e|------------------------------------------------------------|
B|-------10-10----10-10----10-------10-10-------10-10------10-|
G|-------x--x-----x--x-----x--------x--x--------x--x-------x--| 
D|-------7--7-----7--7-----7---0-0--7--7---0-0--7--7--0-0--7--|
A|---7-7------7-7------7-7------------------------------------|
E|------------------------------------------------------------|

e|-------------------------------------------|
B|-------------------------------------------|
G|-------------------------------------------|
D|--10-10-10-10-10-10-10-10--9-9-9-9-9-9-9-9-|
A|--10-10-10-10-10-10-10-10--9-9-9-9-9-9-9-9-|
E|--8--8--8--8--8--8--8--8---7-7-7-7-7-7-7-7-|

e|----------------------------|
B|-------10-10------10-8-10---|
G|-------x--x-------x--x-x--9-| 
D|-------7--7-------7--5-7--x-|
A|---7-7-------7-7----------7-|
E|----------------------------|

guitar 2
e|--------------------------------------|
B|--------------------------------------|
G|------------------------------9----7--|  keep repeating this riff 
D|-----9-----9-----9-----9--------------|
A|---7-----7-----7-----7-----7----7-----|
E|-0-----0-----0-----0------------------|

guitar 1
e|-------------------|
B|-------------------|
G|--9--9-9-9-9-9--9--|
D|--9--9-9-9-9-9--9--| x2
A|--7--7-7-7-7-7--7--|
E|-------------------|
     pm.........

e|-------------------5-|
B|-------------------5-|
G|--9--9-9-9-9-9--9--6-|
D|--9--9-9-9-9-9--9--7-| 
A|--7--7-7-7-7-7--7--7-|
E|-------------------5-|
     pm.........

e|-----------------------------------------------|
B|-----------------------------------------------|
G|--9--9-9-9--9--11-11--11-11--11--12-12--12--12-|
D|--9--9-9-9--9--11-11--11-11--11--12-12--12--12-| 
A|--7--7-7-7--7--9--9---9--9---9---10-10--10--10-|
E|-----------------------------------------------|
     pm.....

e|----------------------|
B|----------------------|
G|----------------------|
D|--7-7--7-7-7-7-7-7-7--|
A|--7-7--7-7-7-7-7-7-7--|
E|--5-5--5-5-5-5-5-5-5--|

CHORUS

OUTRo
guitar 1
e|-----------------------------------|
B|-----------------------------------|
G|--9-9-9-9-9-9-9-9------------------|
D|--9-9-9-9-9-9-9-9--9-9-9-9-9-9-9-9-|
A|--7-7-7-7-7-7-7-7--9-9-9-9-9-9-9-9-|
E|-------------------7-7-7-7-7-7-7-7-|

guitar 2
e|--------------------------------------|
B|--------------------------------------|
G|------------------------------9----7--| 
D|-----9-----9-----9-----9--------------|
A|---7-----7-----7-----7-----7----7-----|
E|-0-----0-----0-----0------------------|

e|--------------------------------------|
B|--------------------------------------|
G|------------------------------9---7---| 
D|-----9-----9-----9-----9--------------|
A|---9-----9-----9-----9----9-----9-----|
E|-7-----7-----7-----7------------------|

guitar 1
e|-----------------------------------|
B|-----------------------------------|
G|-----------------------------------|
D|--7-7-7-7-7-7-7-7--2-2-2-2-2-2-2-2-|
A|--7-7-7-7-7-7-7-7--2-2-2-2-2-2-2-2-|
E|--5-5-5-5-5-5-5-5--0-0-0-0-0-0-0-0-|

guitar 2
e|------------------------------------|
B|------------------------------------|
G|-----------------------------9----7-| 
D|-----7-----7-----7-----7------------|
A|---7-----7-----7-----7----7----7----|
E|-5-----5-----5-----5----------------|

e|-----------------------------------------|
B|-----------------------------------------|
G|------------------------------9-7--------| 
D|-----9-----9-----9-----9----------9------|
A|---7-----7-----7-----7-----7--------10-7-|
E|-0-----0-----0-----0---------------------|
Добавлено: 24.03.2012
Другие материалы по этой песне:
  • Аккорды и текст

Страница создана 24.03.2012
http://primanota.ru/silbermond/nichts-passiert-chords.htm
Привет, Гость.
Предлагаем пройти революционный курс по гитаре.
Подарок от PrimaNota.Ru, забирай!