PrimaNota.ru - самый крупный в мире бесплатный архив песенных текстов, аккордов, табулатур и нот


Silbermond - Durch Die Nacht - аккорды и текст, таба, видео

Регистрация Запомнить меня
Войти через:  Facebook Google Twitter Vk Yandex Mail.ru

Silbermond - Durch Die Nacht - аккорды и текст, таба, видео

Печатать
Просмотров: 305
Авторы музыки: Silbermond

Durch Die Nacht
Silbermond
Have fun ;)


Verse:
|---------------------------------|--------------------|
|---------------------------------|--------------------|
|---------------------------------|--------------------|
|--12-12--12--12--12-12-12-12--12-|-5--5--5-------5--5-|
|--12-12--12--12--12-12-12-12--12\|-5--5--5-------5--5-|
|--10-10--10--10--9--9--9--9---9-\|-3--3--3--2/3--3--3-|

Kann mich wieder nich ablenken,
Alles dreht sich nur um dich
Ich liege hier und zähl die Tage,
Wie viele noch kommen, ich weiß es nich

Was hast du mit mir gemacht,
Warum tust du mir das an
Was soll ich noch ändern,
Ich komm nur wieder bei dir an

Pre-Chorus:
git1
|-----------------------------------------------------------------|
|-----------------------------------------------------------------|
|-9---9----11----11-----9---9-----4---4---------------------------|
|---9---9-----12----12----9---10----5---5------7-----7----7-----7-|
|-----------------------------------------------------------------|
|-----------------------------------------------------------------|

git2
|-------------------------------------------5-----------2---------|
|-------------------------------------------5-----------2---------|
|--9-------11----------5--------------------x-----------x---------|
|--9-------11----------5---------5----------7-----------4---------|
|--7-------9-----------3---------5----------7-----------4---------|
|--------------------------------3----------5-----------2---------|

Ich will weg von hier
Doch es scheint egal wohin ich lauf
Das mit dir hört nicht auf
Sag mir wann hört das auf

Chorus:
|----------------------------------------------|
|----------------------------------------------|
|----------------------------------------------|
|-2----5----12----12-----9----7----5-5-5-5---4-|
|-2----5----12----12-----9----7----5-5-5-5---4-|
|-0----3----10----9------7----5----3-3-3-3---2-|


Und ich kämpf mich durch die Nacht
Hab keine Ahnung was du mit mir machst
Ich krieg dich nich aus meinem Kopf und dabei will ich doch
Und ich kämpf mich durch die Nacht
Bin unter Tränen wieder aufgewacht
Ich krieg dich nich aus meinem Kopf und dabei muss ich doch


Alle meine Wünsche
Habe ich an dir verbraucht
Ich kann es selbst nich glauben
Denn nur ich hol mich da raus
Es fällt mir schwer das zu kapiern
Doch irgendwie wird es schon gehen
Alles würde sich verändern,
wenn ich dich nich mehr wiederseh
Добавлено: 07.05.2012
Другие материалы по этой песне:

Страница создана 24.02.2012
http://primanota.ru/silbermond/durch-die-nacht-chords.htm
Привет, Гость.
Предлагаем пройти революционный курс по гитаре.
Подарок от PrimaNota.Ru, забирай!