PrimaNota.ru - самый крупный в мире бесплатный архив песенных текстов, аккордов, табулатур и нот


Sikth - Walking Shadows - таба, видео

Регистрация Запомнить меня
Войти через:  Facebook Google Twitter Vk Yandex Mail.ru

Sikth - Walking Shadows - таба, видео

Печатать
Просмотров: 65
Уроки эстрадного вокала в Санкт-Петербурге
-----------------------------------------------------------------------------------------------
Artist - SikTh
Song   - Walking Shadows
Album  - Opacities
Tab by - Jakob Jugovic
-----------------------------------------------------------------------------------------------

Here is my interpretation of this SikTh's song for just one guitar, 
the tuning is drop Eb, I can't set it on the tab-manager... Enjoy!

Please rate if you appreciate, for this tab I've spent a lot of time, thank you. Jakob :)



legend:

pm - palm mute
p  - pull off
h  - hammer on (left hand)
t  - tapping (right hand)
b  - bend to
/  - slide up
\  - slide down
++ - natural harmonics
#  - 1/4 (tempo)
'  - 1/16 (tempo)
3_ - triplet

Tuning and tempo signs(4/16):


    1   2   3   4
    |   |   |   | 
    #   '   '   '
F |----------------|
C |----------------|
Ab|----------------|
Eb|----------------|
Bb|----------------|
Eb|----------------|



INTRO

  (guitar 1)

     #   '   '   '   #   '   '   '   #   '   '   '   #   '   '   '       \
                                                                          |
F |-------------------------------------------------------------------|   |
C |--------------------------------------21---------------------------|   |
Ab|--19p-13--------------19p-13------19-----19p-13--------------------|   |
Eb|----------15------------------15------------------15\--------------|   |
Bb|-------------------------------------------------------------------|   |
Eb|--------------12\-----------------------------------------0--------|   |
     t       h   h       t       h   t   t   t       h                    |
                                                                          |
                                                                          | alternative *
  (guitar 2)                                                              |
                                                                          |
     #   '   '   '   #   '   '   '   #   '   '   '   #   '   '   '        |  
                                                                          |
F |-------------------------------------------------------------------|   |
C |-------------------------------------------------------------------|   |
Ab|--------------------------------------13---------------------------|   |
Eb|--12p-6---------------12p-6-------12------12p-6--------------------|   |
Bb|--------h-8-----------------h-8-----------------h-8\---------------|   |
Eb|--------------12p-0---------------------------------------0--------|   |
     t           t                   t   t   t                           /



     #   '   '   '   #   '   '   '   #   '   '   '   #   '   '   '     

F |--------------0-------------------------------0--------------------|
C |--------------------------6-------------------------------6--------|
Ab|-/7-------------------------------6--------------------------------|
Eb|-------------------------------------------------------------------|
Bb|-------------------------------------------------------------------|
Eb|-------------------------------------------------------------------|



     #   '   '   '   #   '   '   '   #   '   '   '   #   '   '   '     

F |-------------------------------------------------------------------|
C |--------------------------------------21---------------------------|
Ab|--19p-13--------------19p-13------19-----19p-13--------------------|
Eb|----------15------------------15------------------15\--------------|
Bb|-------------------------------------------------------------------|
Eb|--------------12\-----------------------------------------0--------|
     t       h   h       t       h   t   t   t       h



      _3__    _3__   #   '    _3__    _3__    _3__    _3__   '   '
     |    |  |    |          |    |  |    |  |    |  |    |  
F |-------------------------------------------------------------------|
C |-------------------------------------------------------------------|
Ab|--13p8p7------------------13p8p7-13/15\13p8p7----------------------|
Eb|----------13p8p7-----------------------------h8--------------------|
Bb|--------------------------------------------------13p8p7-----------|
Eb|------------------0---------------------------------------0--------|
     t       t               t      t                t



     #   '   '   '   #   '   '   '   #   '   '   '   #   '   '   '     

F |-------------------------------------------------------------------|
C |--------------------------------------21---------------------------|
Ab|--19p-13--------------19p-13------19-----19p-13--------------------|
Eb|----------15------------------15------------------15\--------------|
Bb|-------------------------------------------------------------------|
Eb|--------------12\-----------------------------------------0--------|
     t       h   h       t       h   t   t   t       h



     #   '   '   '   #   '   '   '   #   '   '   '   #   '   '   '     

F |--------------------------0-------------------------------0--------|
C |--------------6-------------------------------6--------------------|
Ab|-/7-------------------------------6--------------------------------|
Eb|-------------------------------------------------------------------|
Bb|-------------------------------------------------------------------|
Eb|-------------------------------------------------------------------|



     #   '   '   '   #   '   '   '   #   '   '   '   #   '   '   '     

F |-------------------------------------------------------------------|
C |--------------------------------------21---------------------------|
Ab|--19p-13--------------19p-13------19-----19p-13--------------------|
Eb|----------15------------------15------------------15\--------------|
Bb|-------------------------------------------------------------------|
Eb|--------------12\-----------------------------------------0--------|
     t       h   h       t       h   t   t   t       h



      _3__    _3__   #   '    _3__    _3__    _3__   '   '   '   '
     |    |  |    |          |    |  |    |  |    |  
F |-------------------------------------------------------------------|
C |-------------------------------------------------------------------|
Ab|--13p8p7------------------13p8p7-13/15\13p8p7----------------------|
Eb|----------13p8p7-----------------------------h8--------------------|
Bb|-------------------------------------------------------------------|
Eb|------------------0-------------------------------0-----------0----|
     t       t               t      t



  VERSE [A] (2x)


     #   '   '   '   #   '   '   '   #   '   '   '   #   '   '   '     

F |-------------------------------------------------------------------|
C |-------------------------------------------------------------------|
Ab|------------------2------------------------------------------------|
Eb|----------0---5-------0---1---------------5---1--------------------|
Bb|------------------------------1-------------------5---1------------|
Eb|------0---------------------------0-----------------------0--------|
  pm     .   .   .   .   .   .   .           .   .   .   .


     #   '   '   '   #   '   '   '   #   '   '   '   #   '   '   '     

F |-------------------------------------------------------------------|
C |-------------------------------------------------------------------|
Ab|------------------2-------------------------------2----------------|
Eb|----------0---5-------0---1---------------0---5-------0---1---0----|
Bb|------------------------------1-------------------------------0----|
Eb|--0-------------------------------0---------------------------0----|
  pm         .   .   .   .   .   .           .   .   .   .   .


     #   '   '   '   #   '   '   '   #   '   '   '   #   '   '   '     

F |-------------------------------------------------------------------|
C |-------------------------------------------------------------------|
Ab|-------------------------------------------------------------------|
Eb|----------1---------------1-------0--------------------------------|
Bb|----------1-------1---1---1-------0---------------0---0---0---0----|
Eb|----------1-------1---1---1-------0---------------0---0---0---0----|
  pm                 .   .                           .   .   .


     #   '   '   '   #   '   '   '   #   '   '   '   #   '   '   '     

F |-------------------------------------------------------------------|
C |-------------------------------------------------------------------|
Ab|--------------------------------------------------2----------------|
Eb|------------------------------------------0---5-------0---1--------|
Bb|----------0--------------------------------------------------------|
Eb|----------0-------0---0---11p-0---11p-0----------------------(0)---|  2nd time play (0)
  pm                 .   .                   .   .   .   .   .



  BRIDGE (x2)


     #   '   '   '   #   '   '   '   #   '   '   '   #   '   '   '     

F |-------------------------------------------------------------------|
C |-------------------------------------------------------------------|
Ab|-------------------------------------------------------------------|
Eb|------12p-6---------------12p-6---------------12p-6----------------|
Bb|------------h-8-----------------h-8-----------------h-8------------|
Eb|------------------0-------------------0-------------------0--------|



     #   '   '   '   #   '   '   '   #   '   '   '   #   '   '   '     

F |-------------------------------------------------------------------|
C |-------------------------------------------------------------------|
Ab|-------------------------------------------------------------------|
Eb|----------------------12p-6----------------------------------------|
Bb|----------------------------h-8---------------------------10-------|
Eb|--3b6---------0-------------------0-------0-------0---8-------0----|
  pm                                                 .   .



  CHORUS


     #   '   '   '   #   '   '   '   #   '   '   '   #   '   '   '     

F |-------------------------------------------------------------------|
C |-------------------------------------------------------------------|
Ab|--7---7---7---7---7---7---7---7---7---7---7---7---7---7---9---9----|
Eb|--x---x---x---x---x---x---x---x---x---x---x---x---x---x---x---x----|
Bb|--5---5---5---5---5---5---5---5---5---5---5---5---5---5---5---5----|
Eb|--0---0---0---0---0---0---0---0---0---0---0---0---0---0---0---0----|


     #   '   '   '   #   '   '   '   #   '   '   '   #   '   '   '     

F |-------------------------------------------------------------------|
C |--------------------------6---6---6---6---6---6---6---6---6--------|
Ab|--9---9---9---9---9---9---7---7---7---7---7---7---7---7---7--------|
Eb|--x---x---x---x---x---x---x---x---x---x---x---x---x---x---x---5----|
Bb|--5---5---5---5---5---5---5---5---5---5---5---5---5---5---5---5----|
Eb|--0---0---0---0---0---0---0---0---0---0---0---0---0---0---0---5----|


     #   '   '   '   #   '   '   '   #   '   '   '   #   '   '   '     

F |-------------------------------------------------------------------|
C |-------------------------------------------------------------------|
Ab|-------------------------------------------------------------------|
Eb|--5---5---5---5---5-----------3---------------3---------------5----|
Bb|--5---5---5---5---5-----------3---------------3---------------5----|
Eb|--5---5---5---5---5---5---5---3-------3---3---3-------3---3---5----|
  pm                     .   .           .   .           .   .


     #   '   '   '   #   '   '   '   #   '   '   '   #   '   '   '     

F |-------------------------------------------------------------------|
C |-------------------------------------------------------------------|
Ab|--3---3---3---3---3---3---3---3---3---3---5---5---5---5---7---7----|
Eb|--x---x---x---x---x---x---x---x---x---x---x---x---x---x---x---x----|
Bb|--1---1---1---1---1---1---1---1---1---1---3---3---3---3---5---7----|
Eb|-------------------------------------------------------------------|


     #   '   '   '   #   '   '   '   #   '   '   '   #   '   '   '     

F |-------------------------------------------------------------------|
C |-------------------------------------------------------------------|
Ab|--7---7---7---7---7---7---7---7---7---7---7---7---7---7---9---9----|
Eb|--x---x---x---x---x---x---x---x---x---x---x---x---x---x---x---x----|
Bb|--5---5---5---5---5---5---5---5---5---5---5---5---5---5---5---5----|
Eb|--0---0---0---0---0---0---0---0---0---0---0---0---0---0---0---0----|


     #   '   '   '   #   '   '   '   #   '   '   '   #   '   '   '     

F |-------------------------------------------------------------------|
C |--------------------------6---6---6---6---6---6---6---6---6--------|
Ab|--9---9---9---9---9---9---7---7---7---7---7---7---7---7---7--------|
Eb|--x---x---x---x---x---x---x---x---x---x---x---x---x---x---x---5----|
Bb|--5---5---5---5---5---5---5---5---5---5---5---5---5---5---5---5----|
Eb|--0---0---0---0---0---0---0---0---0---0---0---0---0---0---0---5----|


     #   '   '   '   #   '   '   '   #   '   '   '   #   '   '   '     

F |-------------------------------------------------------------------|
C |-------------------------------------------------------------------|
Ab|-------------------------------------------------------------------|
Eb|--5---5---5---5---5-----------3---------------3---------------5----|
Bb|--5---5---5---5---5-----------3---------------3---------------5----|
Eb|--5---5---5---5---5---5---5---3-------3---3---3-------3---3---5----|
  pm                     .   .           .   .           .   .


     #   '   '   '   #   '   '   '   #   '   '   '   #   '   '   '     

F |-------------------------------------------------------------------|
C |-------------------------------------------------------------------|
Ab|-------------------------------------------------------------------|
Eb|------5------------------------------------------------------------|
Bb|------5------------------------------------------------------------|
Eb|------5-----------------------2b4----------(slowly release)---0----|



  VERSE [B] (2x)


     #   '   '   '   #   '   '   '   #   '   '   '   #   '   '   '     

F |-------------------------------------------------------------------|
C |-------------------------------------------------------------------|
Ab|-------------------------------------------------------------------|
Eb|-----------------/7--(let ring)-------------------------------0----|
Bb|----------------------------------11-------------------------------|
Eb|----------0---0-----------------------------------0-------0--------|
  pm         .   .                                   .       .


     #   '   '   '   #   '   '   '   #   '   '   '   #   '   '   '     

F |-------------------------------------------------------------------|
C |------------------------------3------------------------------------|
Ab|--------------------------2-----------2----------------------------|
Eb|------2---3---1------/3-------------------3---1-------1-------0----|
Bb|----------------------------------------------1-------1-------0----|
Eb|----------------------------------------------1-------1-------0----|


     #   '   '   '   #   '   '   '   #   '   '   '   #   '   '   '     

F |-------------------------------------------------------------------|
C |-------------------------------------------------------------------|
Ab|-------------------------------------------------------------------|
Eb|----------1---------------1-------0--------------------------------|
Bb|----------1-------1---1---1-------0---------------0---0---0---1----|
Eb|----------1-------1---1---1-------0---------------0---0---0---1----|
  pm                 .   .                           .   .   .


     #   '   '   '   #   '   '   '   #   '   '   '   #   '   '   '     

F |-------------------------------------------------------------------|
C |-------------------------------------------------------------------|
Ab|-------------------------------------------------------------------|
Eb|----------------------------------------------1-------1-------0----|
Bb|--0---1---0-----------------------------------1-------1-------0----|
Eb|--0---1---0---0---0---0---11p-0---11p-0---0---1-------1-------0----|
  pm             .   .   .                   .



  VERSE [A] (2x)


     #   '   '   '   #   '   '   '   #   '   '   '   #   '   '   '     

F |-------------------------------------------------------------------|
C |-------------------------------------------------------------------|
Ab|------------------2------------------------------------------------|
Eb|----------0---5-------0---1---------------5---1--------------------|
Bb|------------------------------1-------------------5---1------------|
Eb|------0---------------------------0-----------------------0--------|
  pm     .   .   .   .   .   .   .           .   .   .   .


     #   '   '   '   #   '   '   '   #   '   '   '   #   '   '   '     

F |-------------------------------------------------------------------|
C |-------------------------------------------------------------------|
Ab|------------------2-------------------------------2----------------|
Eb|----------0---5-------0---1---------------0---5-------0---1---0----|
Bb|------------------------------1-------------------------------0----|
Eb|--0-------------------------------0---------------------------0----|
  pm         .   .   .   .   .   .           .   .   .   .   .


     #   '   '   '   #   '   '   '   #   '   '   '   #   '   '   '     

F |-------------------------------------------------------------------|
C |-------------------------------------------------------------------|
Ab|-------------------------------------------------------------------|
Eb|----------1---------------1-------0--------------------------------|
Bb|----------1-------1---1---1-------0---------------0---0---0---0----|
Eb|----------1-------1---1---1-------0---------------0---0---0---0----|
  pm                 .   .                           .   .   .


     #   '   '   '   #   '   '   '   #   '   '   '   #   '   '   '     

F |-------------------------------------------------------------------|
C |-------------------------------------------------------------------|
Ab|--------------------------------------------------2----------------|
Eb|------------------------------------------0---5-------0---1--------|
Bb|----------0--------------------------------------------------------|
Eb|----------0-------0---0---9b11----9b11-----------------------(0)---|  2nd time play (0)
  pm                 .   .                   .   .   .   .   .



  BRIDGE (x2)


     #   '   '   '   #   '   '   '   #   '   '   '   #   '   '   '     

F |-------------------------------------------------------------------|
C |-------------------------------------------------------------------|
Ab|-------------------------------------------------------------------|
Eb|------12p-6---------------12p-6---------------12p-6----------------|
Bb|------------h-8-----------------h-8-----------------h-8------------|
Eb|------------------0-------------------0-------------------0--------|


     #   '   '   '   #   '   '   '   #   '   '   '   #   '   '   '     

F |-------------------------------------------------------------------|
C |-------------------------------------------------------------------|
Ab|-------------------------------------------------------------------|
Eb|----------------------12p-6----------------------------------------|
Bb|----------------------------h-8---------------------------10-------|
Eb|--3b6---------0-------------------0-------0-------0---8-------0----|
  pm                                                 .   .



  CHORUS


     #   '   '   '   #   '   '   '   #   '   '   '   #   '   '   '     

F |-------------------------------------------------------------------|
C |-------------------------------------------------------------------|
Ab|--7---7---7---7---7---7---7---7---7---7---7---7---7---7---9---9----|
Eb|--x---x---x---x---x---x---x---x---x---x---x---x---x---x---x---x----|
Bb|--5---5---5---5---5---5---5---5---5---5---5---5---5---5---5---5----|
Eb|--0---0---0---0---0---0---0---0---0---0---0---0---0---0---0---0----|


     #   '   '   '   #   '   '   '   #   '   '   '   #   '   '   '     

F |-------------------------------------------------------------------|
C |--------------------------6---6---6---6---6---6---6---6---6--------|
Ab|--9---9---9---9---9---9---7---7---7---7---7---7---7---7---7--------|
Eb|--x---x---x---x---x---x---x---x---x---x---x---x---x---x---x---5----|
Bb|--5---5---5---5---5---5---5---5---5---5---5---5---5---5---5---5----|
Eb|--0---0---0---0---0---0---0---0---0---0---0---0---0---0---0---5----|


     #   '   '   '   #   '   '   '   #   '   '   '   #   '   '   '     

F |-------------------------------------------------------------------|
C |-------------------------------------------------------------------|
Ab|-------------------------------------------------------------------|
Eb|--5---5---5---5---5-----------3---------------3---------------5----|
Bb|--5---5---5---5---5-----------3---------------3---------------5----|
Eb|--5---5---5---5---5---5---5---3-------3---3---3-------3---3---5----|
  pm                     .   .           .   .           .   .


     #   '   '   '   #   '   '   '   #   '   '   '   #   '   '   '     

F |-------------------------------------------------------------------|
C |-------------------------------------------------------------------|
Ab|--3---3---3---3---3---3---3---3---3---3---5---5---5---5---7---7----|
Eb|--x---x---x---x---x---x---x---x---x---x---x---x---x---x---x---x----|
Bb|--1---1---1---1---1---1---1---1---1---1---3---3---3---3---5---7----|
Eb|-------------------------------------------------------------------|


     #   '   '   '   #   '   '   '   #   '   '   '   #   '   '   '     

F |-------------------------------------------------------------------|
C |-------------------------------------------------------------------|
Ab|--7---7---7---7---7---7---7---7---7---7---7---7---7---7---9---9----|
Eb|--x---x---x---x---x---x---x---x---x---x---x---x---x---x---x---x----|
Bb|--5---5---5---5---5---5---5---5---5---5---5---5---5---5---5---5----|
Eb|--0---0---0---0---0---0---0---0---0---0---0---0---0---0---0---0----|


     #   '   '   '   #   '   '   '   #   '   '   '   #   '   '   '     

F |-------------------------------------------------------------------|
C |--------------------------6---6---6---6---6---6---6---6---6--------|
Ab|--9---9---9---9---9---9---7---7---7---7---7---7---7---7---7--------|
Eb|--x---x---x---x---x---x---x---x---x---x---x---x---x---x---x---5----|
Bb|--5---5---5---5---5---5---5---5---5---5---5---5---5---5---5---5----|
Eb|--0---0---0---0---0---0---0---0---0---0---0---0---0---0---0---5----|


     #   '   '   '   #   '   '   '   #   '   '   '   #   '   '   '     

F |-------------------------------------------------------------------|
C |-------------------------------------------------------------------|
Ab|-------------------------------------------------------------------|
Eb|--5---5---5---5---5-----------3---------------3---------------5----|
Bb|--5---5---5---5---5-----------3---------------3---------------5----|
Eb|--5---5---5---5---5---5---5---3-------3---3---3-------3---3---5----|
  pm                     .   .           .   .           .   .


     #   '   '   '   #   '   '   '   #   '   '   '   #   '   '   '     

F |-------------------------------------------------------------------|
C |-------------------------------------------------------------------|
Ab|----------------------------------13b14--(slowly release)----------|
Eb|------5---------------------------0--------------------------------|
Bb|------5------------------------------------------------------------|
Eb|------5-------------------------------------------------------0----|



  BRIDGE (x4)


     #   '   '   '   #   '   '   '   #   '   '   '   #   '   '   '     

F |-------------------------------------------------------------------|
C |-------------------------------------------------------------------|
Ab|-------------------------------------------------------------------|
Eb|------12p-6---------------12p-6---------------15p-9----------------|
Bb|------------h-8-----------------h-8-----------------h-12-----------|
Eb|------------------0-------------------0-------------------0--------|


     #   '   '   '   #   '   '   '   #   '   '   '   #   '   '   '     

F |-------------------------------------------------------------------|
C |-------------------------------------------------------------------|
Ab|-------------------------------------------------------------------|
Eb|----------------------12p-6----------------------------------------|
Bb|----------------------------h-8---------------------------10-------|
Eb|--3b6---------0-------------------0-------0-------0---8-------0----|
  pm                                                 .   .



  5/8 PART (x2)


     #   '   '   '   '   #   '   '   '   '   #   '   '   '   '   #   '   '   '   '

F |----------------------------------------------------------------------------------|
C |----------------------------------------------------------------------------------|
Ab|--0-------------------0-------------------0-------------------0-------------------|
Eb|--6-------------------6-------------------6-------------------6-------------------|
Bb|----------------------------------------------------------------------------------|
Eb|----------0---0---0-----------0---0---0-----------0---0---0-----------0---0---0---|
  pm         .   .   .           .   .   .           .   .   .           .   .   .


     #   '   '   '   '   #   '   '   '   '   #   '   '   '   '   #   '   '   '   '

F |----------------------------------------------------------------------------------|
C |----------------------------------------------------------------------------------|
Ab|--0-------------------0-----------------------------------------------------------|
Eb|--6-------------------6------------------/5-p-4---1---4---1-----------------------|
Bb|--------------------------------------------------------------5---3---1---0-------|
Eb|----------0---0---0-----------0---0---0---------------------------------------5---|
  pm         .   .   .           .   .   .


     #   '   '   '   '   #   '   '   '   '   #   '   '   '   '   #   '   '   '   '

F |----------------------------------------------------------------------------------|
C |----------------------------------------------------------------------------------|
Ab|--0-------------------0-------------------------------0---------------------------|
Eb|--6-------------------6-------------------------------6---------------------------|
Bb|----------------------------------------------------------------------------------|
Eb|----------0---0---0-----------0---0---0---0---0---0-----------0---0---0---0---0---|
  pm         .   .   .           .   .   .   .   .   .           .   .   .   .   .



     #   '   '   '   '   #   '   '   '   '   #   '   '   '   '   #   '   '   '   '

F |----------------------------------------------------------------------------------|
C |----------------------------------------------------------------------------------|
Ab|--7-------------------7-------------------7-------------------7-------------------|
Eb|--10b12---------------10------------------9b10----------------7-------------------|
Bb|----------------------------------------------------------------------------------|
Eb|----------------------------------------------------------------------------------|


  + only 2nd time:


     #   '   '   '   '   #   '   '   '   '   #   '   '   '   '   #   '   '   '   '

F |----------------------3-------------------5-----------3-------1-------------------|
C |--3---------------------------------------3---------------------------------------|
Ab|--0----(let ring)-------------------------0---------------------------------------|
Eb|--1---------------------------------------3---------------------------------------|
Bb|----------------------------------------------------------------------------------|
Eb|----------------------------------------------------------------------------------|



  7/8 PART


     #   '   '   '   '   '   '   #   '   '   '   '   '   '    

F |----------1------------------------------------------------|     \
C |------------------1----------------------------------------|      |
Ab|--3---------------------------3----------------------------|  x2  |
Eb|--------------------------------------3--------------------|      |
Bb|-----------------------------------------------------------|      |
Eb|-----------------------------------------------------------|      |
                                                                     |
                                                                     |  x2
     #   '   '   '   '   '   '   #   '   '   '   '   '   '           |
                                                                     |
F |-----------------------------------------------------------|      |
C |----------1------------------------------------------------|      |
Ab|------------------3-----------2----------------------------|  x2  |
Eb|--4--------------------------------------------------------|      |
Bb|-----------------------------------------------------------|      |
Eb|--------------------------------------0--------------------|     /


     #   '   '   '   '   '   '   #   '   '   '   '   '   '    

F |----------1------------------------------------------------|     \
C |------------------1-------------------1-------3------------|      |
Ab|--3---------------------------3----------------------------|  x2  |
Eb|-----------------------------------------------------------|      |
Bb|-----------------------------------------------------------|      |
Eb|-----------------------------------------------------------|      |
                                                                     |
                                                                     |  x4
     #   '   '   '   '   '   '   #   '   '   '   '   '   '           |
                                                                     |
F |-----------------------------------------------------------|      |
C |----------1---------------------------1-------3------------|      |
Ab|------------------3-----------2----------------------------|  x2  |
Eb|--4--------------------------------------------------------|      |
Bb|-----------------------------------------------------------|      |
Eb|-----------------------------------------------------------|     /



INTRO RIFF

  (guitar 1)

     #   '   '   '   #   '   '   '   #   '   '   '   #   '   '   '       \
                                                                          |
F |-------------------------------------------------------------------|   |
C |--------------------------------------21---------------------------|   |
Ab|--19p-13--------------19p-13------19-----19p-13--------------------|   |
Eb|----------15------------------15------------------15\--------------|   |
Bb|-------------------------------------------------------------------|   |
Eb|--------------12\-----------------------------------------0--------|   |
     t       h   h       t       h   t   t   t       h                    |
                                                                          |
                                                                          | alternative *
  (guitar 2)                                                              |
                                                                          |
     #   '   '   '   #   '   '   '   #   '   '   '   #   '   '   '        |  
                                                                          |
F |-------------------------------------------------------------------|   |
C |-------------------------------------------------------------------|   |
Ab|--------------------------------------13---------------------------|   |
Eb|--12p-6---------------12p-6-------12------12p-6--------------------|   |
Bb|--------h-8-----------------h-8-----------------h-8\---------------|   |
Eb|--------------12p-0---------------------------------------0--------|   |
     t           t                   t   t   t                           /


     #   '   '   '   #   '   '   '   #   '   '   '   #   '   '   '     

F |--------------0-------------------------------0--------------------|
C |--------------------------6-------------------------------6--------|
Ab|-/7-------------------------------6--------------------------------|
Eb|-------------------------------------------------------------------|
Bb|-------------------------------------------------------------------|
Eb|-------------------------------------------------------------------|


     #   '   '   '   #   '   '   '   #   '   '   '   #   '   '   '     

F |-------------------------------------------------------------------|
C |--------------------------------------21---------------------------|
Ab|--19p-13--------------19p-13------19-----19p-13--------------------|
Eb|----------15------------------15------------------15\--------------|
Bb|-------------------------------------------------------------------|
Eb|--------------12\-----------------------------------------0--------|
     t       h   h       t       h   t   t   t       h


      _3__    _3__   #   '    _3__    _3__    _3__    _3__   '   '
     |    |  |    |          |    |  |    |  |    |  |    |  
F |-------------------------------------------------------------------|
C |-------------------------------------------------------------------|
Ab|--13p8p7------------------13p8p7-13/15\13p8p7----------------------|
Eb|----------13p8p7-----------------------------h8--------------------|
Bb|--------------------------------------------------13p8p7-----------|
Eb|------------------0---------------------------------------0--------|
     t       t               t      t                t


     #   '   '   '   #   '   '   '   #   '   '   '   #   '   '   '     

F |-------------------------------------------------------------------|
C |--------------------------------------21---------------------------|
Ab|--19p-13--------------19p-13------19-----19p-13--------------------|
Eb|----------15------------------15------------------15\--------------|
Bb|-------------------------------------------------------------------|
Eb|--------------12\-----------------------------------------0--------|
     t       h   h       t       h   t   t   t       h


     #   '   '   '   #   '   '   '   #   '   '   '   #   '   '   '     

F |--------------------------0-------------------------------0--------|
C |--------------6-------------------------------6--------------------|
Ab|-/7-------------------------------6--------------------------------|
Eb|-------------------------------------------------------------------|
Bb|-------------------------------------------------------------------|
Eb|-------------------------------------------------------------------|


     #   '   '   '   #   '   '   '   #   '   '   '   #   '   '   '     

F |-------------------------------------------------------------------|
C |--------------------------------------21---------------------------|
Ab|--19p-13--------------19p-13------19-----19p-13--------------------|
Eb|----------15------------------15------------------15\--------------|
Bb|-------------------------------------------------------------------|
Eb|--------------12\-----------------------------------------0--------|
     t       h   h       t       h   t   t   t       h


      _3__    _3__   #   '    _3__    _3__    _3__   '   '   '   '
     |    |  |    |          |    |  |    |  |    |  
F |-------------------------------------------------------------------|
C |-------------------------------------------------------------------|
Ab|--13p8p7------------------13p8p7-13/15\13p8p7----------------------|
Eb|----------13p8p7-----------------------------h8--------------------|
Bb|-------------------------------------------------------------------|
Eb|------------------0-------------------------------0----------------|  let ring
     t       t               t      t



  OUTRO

  (the notes in parenthesis are played by the 2nd guitar)

     #   '   '   '   #   '   '   '   #   '   '   '   #   '   '   '     

F |-------------------------------------------------------------------|
C |-------------------------------------------------------------------|
Ab|-(7)---------------------------------------------------------------|
Eb|-(7/8)-------------------------------------------------------------|
Bb|-(10)-------------1-------5---------------1------------------------|
Eb|--1-------3---------------------------------------3-------1--------|


     #   '   '   '   #   '   '   '   #   '   '   '   #   '   '   '     

F |-------------------------------------------------------------------|
C |-------------------------------------------------------------------|
Ab|-(7)---------------------------------------------------------------|
Eb|-(7/8)-------------------------------------------------------------|
Bb|-(10)-------------1-------5---------------1------------------------|
Eb|----------3---------------------------------------3-------1--------|


     #   '   '   '   #   '   '   '   #   '   '   '   #   '   '   '     

F |-------------------------------------------------------------------|
C |-------------------------------------------------------------------|
Ab|-(10)--------------------------------------------------------------|
Eb|-(10)--------------------------------------------------------------|
Bb|-(13)-------------1-------5---------------1------------------------|
Eb|----------3---------------------------------------3-------1--------|


     #   '   '   '   #   '   '   '   #   '   '   '   #   '   '   '     

F |-------------------------------------------------------------------|
C |-------------------------------------------------------------------|
Ab|-(14)--------------------------------------------------------------|
Eb|-(12)--------------------------------------------------------------|
Bb|-(15)-------------1-------5---------------1------------------------|
Eb|----------3---------------------------------------3----------------|


     #   '   '   '   #   '   '   '   #   '   '   '   #   '   '   '     

F |-------------------------------------------------------------------|
C |-------------------------------------------------------------------|
Ab|-(14)--------------------------------------------------------------|
Eb|-(17)--------------------------------------------------------------|
Bb|-(17)-------------5-------10--------------5------------------------|
Eb|--5-------8---------------------------------------8-------5--------|


     #   '   '   '   #   '   '   '   #   '   '   '   #   '   '   '     

F |-------------------------------------------------------------------|
C |-------------------------------------------------------------------|
Ab|-(14)--------------------------------------------------------------|
Eb|-(17)--------------------------------------------------------------|
Bb|-(17)-------------5-------10--------------5------------------------|
Eb|----------8---------------------------------------8-------5--------|


     #   '   '   '   #   '   '   '   #   '   '   '   #   '   '   '     

F |-------------------------------------------------------------------|
C |-------------------------------------------------------------------|
Ab|-(17)--------------------------------------------------------------|
Eb|-(17)--------------------------------------------------------------|
Bb|-(17)-------------5-------10--------------5------------------------|
Eb|----------8---------------------------------------8-------5--------|


     #   '   '   '   #   '   '   '   #   '   '   '   #   '   '   '     

F |-------------------------------------------------------------------|
C |-------------------------------------------------------------------|
Ab|-(17/15/14)--------------------------------------------------------|
Eb|-(17)--------------------------------------------------------------|
Bb|-(17)-------------5-------8---------------5------------------------|
Eb|----------8---------------------------------------8----------------|


This is it,
Please rate if you appreciate, 
for this tab I've spent a lot of time, 
thank you. Jakob :)
Добавлено: 09.03.2016
Другие материалы по этой песне:
  • Аккорды и текст

Страница создана 09.03.2016
http://primanota.ru/sikth/walking-shadows-chords.htm
Привет, Гость.
Предлагаем пройти революционный курс по гитаре.
Подарок от PrimaNota.Ru, забирай!