PrimaNota.ru - самый крупный в мире бесплатный архив песенных текстов, аккордов, табулатур и нот


Sigur Ros - Viorar Vel Til Loftarasa - таба, видео

Регистрация Запомнить меня
Войти через:  Facebook Google Twitter Vk Yandex Mail.ru

Sigur Ros - Viorar Vel Til Loftarasa - таба, видео

Печатать
Просмотров: 100
Artist:    Sigur Ros
Album :    Svefn-G-Englar
Song  :    Viorar Vel Til Loftarasa

Transcribed by Chris Rockwel - rockfusion@hotmail.com

Standard tuning (Piano arranged for guitar, best if finger-picked)

INTRO:

e-----0----------------------------------------------|
B---0---0--3------3-----3-------2----3----3-----2----|
G------------4----4-----4------2-----4----4----2-----|
D--------------4--------------4------4--------2------|
A----------2------2---2------2-----2----2----0-------|
E---0------------------------------------------------|
                           Sweep.           Sweep
e----------------------------------------------------|
B----2-----2------3------2----2----0-----------0-----|
G------2---------2------2-------2----1-----------1---|
D--------2------2----2-2----2----------------2-----2-|
A--0-----------------------------------2/7-----------|
E----------------------------------0-----------------|

e------------------0---(0)------------2-4-5----------|
B----------------0---0-(0)----------5----------3-----|
G----1--2--/4-----------4--------4-----------4---4---|
D----2--2--/2-------------2--------------------------|
A-----------------------------------------2----------|
E--0--------0-------------0------0----(0)------------|

e------5---(5)----5-------5--------------------------|
B-----3-----2-----3------3------2-----2-----2------3-|
G----4------4-----4-----4------2--------2---------2--|
D-----------------------------2-----------2------2---|
A---2----2-----2-----2-------0-----0-----------------|
E----------------------------------------------------|

e-----------------------------------------0----------|
B----2-----2-------0------------0---------0----------|
G------2-----2-------1------------1--------------6---|
D--2-----2-----2---------2----------2----------------|
A----------------------2------2------------------4---|
E------------------0---------------------------------|

e-----------------------------------------0----------|
B---------------0--2------2----2-----0------0--------|
G---7----6\--------2-----2-----2-------2------2------|
D-----------------------2---------------2-------2----|
A---5----4\-----0-----0------0----0------------------|
E------------------------------------2------------2--|

e-----------0----------------------------------------|
B------0----0----3----3----3----2-----3---3----2-----|
G------2----2----4----4----4----2-----4----4---2-----|
D------2---------------------------------------------|
A----------------------------------------------------|
E---2-----2------3---3----3--3--3---3---3------2-----|

e----------------------------------------------------|
B----2------2-----3------3-------3--------5-----5----|
G------2------2-----4------4-------4--------6-----6--|
D---------------------------------------------7-----7|
A----------------------------------------------------|
E--2------2-------3----3---------3----(3)/5----------|

e--------------------------------------------3-------|
B--5----7-----7----5---7---7-----7---5---7\----3-----|
G----6----7-----7----7-------7-----7---7---------4---|
D----------------------------------------------------|
A--------------------------5---5-----5---------------|
E-------7---7------7-------------------------3-------|


e--3------3-----2------2------2----0-----0-----------|
B----3------3-----2------2------2-------0------------|
G------4------------2------2-------1---1-  Let Ring--|
D----------------------------------------------------|
A----------------------------------------------------|
E--3------3-----2------2------2----0--------0--------|

Now start over with:

e-------------------0---(0)--|
B-----------------0---0-(0)--|
G----1--2--/4------------2---|
D----2--2--/2------------4---|
A----------------------------|
E--0--------0----------------|

Then the Hopelandic lyrics kick in...

There you go, ENJOY!
     
Добавлено: 08.07.2013
Другие материалы по этой песне:
  • Аккорды и текст

Страница создана 08.07.2013
http://primanota.ru/sigur-ros/viorar-vel-til-loftarasa-chords.htm
Привет, Гость.
Предлагаем пройти революционный курс по гитаре.
Подарок от PrimaNota.Ru, забирай!