PrimaNota.ru - самый крупный в мире бесплатный архив песенных текстов, аккордов, табулатур и нот


Sigur Ros - Vi Spilum Endalaust - бас-таба, видео

Регистрация Запомнить меня
Войти через:  Facebook Google Twitter Vk Yandex Mail.ru

Sigur Ros - Vi Spilum Endalaust - бас-таба, видео

Печатать
Просмотров: 149
Уроки эстрадного вокала в Санкт-Петербурге
Авторы музыки: Kjartan Sveinsson, Orri Páll Dýrason, Georg Hólm, Jón Þór Birgisson

Another catchy bass line from Með suð í eyrum við spilum endalaust, and one that is very
to play.

Riff 1

G-(5)------|---------|---------|---------|  The note in brackets is only
D----------|---------|-2-2-2-2-|-3-3-3-3-|  played when Riff 3 is played
A--3-3-3-3-|-5-5-5-5-|---------|---------|  just before Riff 1
E----------|---------|---------|---------|

Riff 2

G---------|---------|---------|---------|
D-3-3-3-3-|-5-5-5-5-|-2-2-2-2-|-3-3-3-3-|
A---------|---------|---------|---------|
E---------|---------|---------|---------|

Riff 3

G-(5)------|---------|---------|---------|---------|-2-2-2-2-|-4-4-4-4-|
D----------|---------|-2-2-2-2-|-3-3-3-3-|-5-5-5-5-|---------|---------|
A--3-3-3-3-|-5-5-5-5-|---------|---------|---------|---------|---------|
E----------|---------|---------|---------|---------|---------|---------|

The note in brackets [G-(5)-] is only played when Riff 3 is repeated.

Last Note

G--5------|
D---------|
A-(3)-----| Not sure if this bracketed note is there or not, but what the
E---------| hell why not have it there for a bassier sound?


__Order__

Wait... until 0:06, then

Riff 1 x 4
Riff 2 x 2
Riff 1 x 3
Riff 2 x 2
Riff 3 x 1
Riff 1 x 3
Riff 2 x 3
Riff 3 x 2
Last Note
Добавлено: 19.05.2012
Другие материалы по этой песне:
  • Аккорды и текст

Страница создана 19.05.2012
http://primanota.ru/sigur-ros/vi-spilum-endalaust-chords.htm
Привет, Гость.
Предлагаем пройти революционный курс по гитаре.
Подарок от PrimaNota.Ru, забирай!