PrimaNota.ru - самый крупный в мире бесплатный архив песенных текстов, аккордов, табулатур и нот


Sigur Ros - Inn Mr Syngur Vitleysingur - бас-таба, видео

Регистрация Запомнить меня
Войти через:  Facebook Google Twitter Vk Yandex Mail.ru

Sigur Ros - Inn Mr Syngur Vitleysingur - бас-таба, видео

Печатать
Просмотров: 96
Sigur Rós-Inní mér syngur vitleysingur
1st part    3x

G  -------------------------------------------------------------------------|
D  -------------------------------------------------------------------------|
A  --------------------------5555--77--33-----------------------------------|
E  -----------3333--2222----------------------------------------------------|


44 seconds

----------------------------------------------------------------------------|
----------------------------------------------------------------------------|
------333---2----5----------------------------------------------------------|
----------------------------------------------------------------------------|

2nd part:

----------------------------------------------------------------------------|
----------------------------------------------------------------------------|
-------------------------33—2-5---------------------------------------------|
-------3333----2222---------------------------------------------------------|

1st part 3x

again the 44 seconds part:
----------------------------------------------------------------------------|
----------------------------------------------------------------------------|
------333---2----5----------------------------------------------------------|
----------------------------------------------------------------------------|

2nd part  2x

4th part:

----------------------------------------------------------------------------|
----------------------------------------------------------------------------|
-10-10-10-10--9-9-9-9—7-7-7-7--5-5-5-5—-3-3-3-3--2-2-2-2--0-0-2-0-----------|
------------------------------------------------------------------3---------|

silence

5th part :  8x
----------------------------------------------------------------------------|
----------------------------------------------------------------------------|
--------------3333----7777---5555-------------------------------------------|
-----3333-------------------------------------------------------------------|
1st part. To end

This is only my first tabb I ever made, I have been playing bass for only a few months
I don't know if I got everything right, but most of it should be correct.
Добавлено: 25.05.2012
Другие материалы по этой песне:
  • Аккорды и текст

Страница создана 25.05.2012
http://primanota.ru/sigur-ros/inn-mr-syngur-vitleysingur-chords.htm
Привет, Гость.
Предлагаем пройти революционный курс по гитаре.
Подарок от PrimaNota.Ru, забирай!