PrimaNota.ru - самый крупный в мире бесплатный архив песенных текстов, аккордов, табулатур и нот


Sigur Ros - Gong - таба, видео

Регистрация Запомнить меня
Войти через:  Facebook Google Twitter Vk Yandex Mail.ru

Sigur Ros - Gong - таба, видео

Печатать
Просмотров: 188
Уроки эстрадного вокала в Санкт-Петербурге
Авторы: Kjartan Sveinsson, Orri Páll Dýrason, Georg Hólm, Jón Þór Birgisson

-------------------------------------------------------------------------------
                             Gong - Sigur Rós
-------------------------------------------------------------------------------

Tuning: eBGDAE (Standard)
Use the original track for timing.
0:19
e|--------------------------------------0---------------------0------------------------------------|
B|--2---2---2---2---2---2---2---2---2--------2---2---2---3-------3---2---2---2---2---3-------------|
G|----2---2---2---1---1---2---2---2---1---1----1---2---2---2---2---2---2---2---2---2---2-----------|
D|-------------------------------------------------------------------------------------------------|
A|-------------------------------------------------------------------------------------------------|
E|-------------------------------------------------------------------------------------------------|

0:37
e|--------------------------------------0---------------------0----------------------0-------------|
B|--2---2---2---2---2---2---2---2---2--------2---2---2---3-------3---2---2---2---2-----------------|
G|----2---2---2---1---1---1---2---2---1---1----1---2---1---1---1---1---2---2---2---1---1-----------|
D|-------------------------------------------------------------------------------------------------|
A|-------------------------------------------------------------------------------------------------|
E|-------------------------------------------------------------------------------------------------|

0:55
e|-------------------------------------------0---------------0------------------------0------------|
B|--2---2---2---3---2---2---2---2---2---2--------2---2---3-------3---2---2---2---0-------0---------|
G|----1---2---2---2---2---2---2---2---2---1----1---2---2---2---2---2---2---2---2---1---1---1-------|
D|-------------------------------------------------------------------------------------------------|
A|-------------------------------------------------------------------------------------------------|
E|-------------------------------------------------------------------------------------------------|


1:15
e|---------------------------------------0--------------------------------------------0------------|
B|--2---2---2---3---2---2---2---2---2---------2---2---2---3---2---2---2---2---2---0-------2--------|
G|----2---2---2---2---2---2---2---2---1----1---1---2---2---2---2---2---2---2---2---1---1---1-------|
D|-------------------------------------------------------------------------------------------------|
A|-------------------------------------------------------------------------------------------------|
E|-------------------------------------------------------------------------------------------------|

01:34
e|-------------------------------------------------------0---------------0-------------------------|
B|--2---2---2---2---2---2---2---2----3---3---2---2---3-------3---2---3-------2---3---3-------------|
G|----2---2---2---2---2---2---2---2---2---2---2---2---2---2---2---2---2---2---2---2---2------------|
D|-------------------------------------------------------------------------------------------------|
A|-------------------------------------------------------------------------------------------------|
E|-------------------------------------------------------------------------------------------------|

01:53
e|----------------------5-------------2-----------0-----------5-----------2------------------------|
B|--3---3---3---2---3---------2---3-------2---3-------2---3-------2---3-------2---3---3-3-2--------|
G|----2---2---2---2---2---2----2---2---2---2---2---2---2---2---2---2---2---2---2---2---------------|
D|-------------------------------------------------------------------------------------------------|
A|-------------------------------------------------------------------------------------------------|
E|-------------------------------------------------------------------------------------------------|

02:11
e|---------------------------------------0-----------------------------------------------0---------|
B|--2---2---2---2---2---2---2---2---2--------2---2---2---3---2---2---2---2---2---2p0---------------|
G|----2---2---2---2---2---2---2---1---2---2---2---2---2---2---2---2---2---2---2-----1-----1--------|
D|-------------------------------------------------------------------------------------------------|
A|-------------------------------------------------------------------------------------------------|
E|-------------------------------------------------------------------------------------------------|

02:29
e|---------------------------------------0---------------------------------------------------------|
B|--2---2---2---3---2---2---2---2----0-------0---2---2---2---2---2---2---2---2---2---3---3---------|
G|----2---2---2---2---2---2---2---2---1---1---1---2---2---2---1---1---2---2---1---1---1---1--------|
D|-------------------------------------------------------------------------------------------------|
A|-------------------------------------------------------------------------------------------------|
E|-------------------------------------------------------------------------------------------------|

02:48
e|--------------0---------------0-----------------------------------5------------2-----------------|
B|-2---2---3--------3---2---3-------2---3---3---3---3---3---2---3--------2---3--------2------------|
G|---2---2---2---2---2---2---2---2---2---2---2---2---2---1---1---1---2----2---2---2----2-----------|
D|-------------------------------------------------------------------------------------------------|
A|-------------------------------------------------------------------------------------------------|
E|-------------------------------------------------------------------------------------------------|

03:07
e|------0------------5-----------2-----------------------------------------------------------------|
B|-3--------2---3--------2---3-------2---3---3-----------------------------------------------------|
G|---2---2---2---2----2---2---2---2---2---2---2~ --------------------------------------------------|
D|-------------------------------------------------------------------------------------------------|
A|-------------------------------------------------------------------------------------------------|
E|-------------------------------------------------------------------------------------------------|


This is really played on a piano but I tried to tab it for guitar.
03:25
e|---------5-------------------7-------------------9------------------------------------|
B|-7--5--5---5-7-7-5--7--5--5----5-7-7-5--7--5--5-----5-7-7-5---------------------------|
G|--------------------------------------------------------------------------------------| x8
D|--------------------------------------------------------------------------------------|
A|--------------------------------------------------------------------------------------|
E|--------------------------------------------------------------------------------------|


04:22
e|-------------17--------------------------19---------------------------21--------------|

B|-19--17--17-----17-19-19-17--19--17--17------17-19-19-17--19--17--17------17-19-19-17-| x2
G|--------------------------------------------------------------------------------------|
D|--------------------------------------------------------------------------------------|
A|--------------------------------------------------------------------------------------|
E|--------------------------------------------------------------------------------------|

04:36 (I'm not really sure about how it goes in this last bit, you can play it like 
before (03:25) or you can try this)
e|---------5-------------------7------------------9--------------------------------|
B|-7--5--5---5-7-7-5----5-7-7-5-5-7-7-5---5-7-7-5---5-7-7-5------------------------|
G|---------------------------------------------------------------------------------| 
D|---------------------------------------------------------------------------------|
A|---------------------------------------------------------------------------------|
E|---------------------------------------------------------------------------------|
...to the end


************************************

| /   slide up
| \   slide down
| h   hammer-on
| p   pull-off
| ~   vibrato
| +   harmonic
| x   Mute note
| b   Bend
| pb  Pre-bend
| br  Bend release
| pbr Pre-bend release
| brb Bend release bend

************************************
Добавлено: 06.10.2013
Другие материалы по этой песне:
  • Аккорды и текст

Страница создана 06.10.2013
http://primanota.ru/sigur-ros/gong-chords.htm
Привет, Гость.
Предлагаем пройти революционный курс по гитаре.
Подарок от PrimaNota.Ru, забирай!