PrimaNota.ru - самый крупный в мире бесплатный архив песенных текстов, аккордов, табулатур и нот


Sigmund Groven - Reodors Balade - таба, видео

Регистрация Запомнить меня
Войти через:  Facebook Google Twitter Vk Yandex Mail.ru

Sigmund Groven - Reodors Balade - таба, видео

Печатать
Просмотров: 95
Tabbed by: Andreas Ekrem
Email: ekrtabs@gmail.com

Gtr I (E A D G B E) - 'Untitled'

  Q=85
  Gtr I
  Q  Q  Q  E E   Q  Q  Q  E E   Q  E E Q  E E   Q  E E H
|----0--2--3-2-|--------------|---------------|-------------|
|-0------------|-5--3--0------|-0--1-0--------|-0-----------|
|--------------|----------0-2-|--------2--0-2-|----2-0------|
|--------------|----0---------|---------------|--------4----|
|-------2------|-3------------|--------0------|--------2----|
|-0------------|-------3------|-0-------------|-0-----------|


  Q  Q  Q  E E   Q  Q  Q  E E   Q  E E Q  E E   W
|----0--2--3-2-|--------------|---------------|------|
|-0------------|-5--3--0------|-0-------------|------|
|--------------|----------0-2-|----2-0--------|------|
|--------------|----0---------|--------4--2-1-|-2----|
|-------2------|-3------------|--------2--2-2-|------|
|-0------------|-------3------|-0-------------|-0----|


  H    Q  E E   Q  Q  Q  E E   Q  E E Q  Q    H    Q  Q
|------0------|--------------|--------------|------------|
|---------3-1-|--------------|----0-1-0-----|------------|
|-------------|-4--0-------0-|-2---------2--|-0----0-----|
|-2-----------|-2-----2--4---|--------------|---------4--|
|-3-----------|--------------|-0------2-----|------------|
|-------------|-------0------|--------------|-0----------|


  H    Q  E E   Q  Q  Q  E E   Q  E E Q  Q    H
|------0------|--------------|--------------|------|
|---------3-1-|--------------|----0-1-0-----|-0----|
|-------------|-4--0-------0-|-2---------2--|------|
|-2-----------|-2-----2--4---|--------------|------|
|-3-----------|--------------|-0------2-----|-2----|
|-------------|-------0------|--------------|------|


  Q  Q  Q  E E   Q  Q  Q  E E   Q  E E Q  E E   Q  E E H
|----0--2--3-2-|--------------|---------------|-------------|
|-0------------|-5--3--0------|-0--1-0--------|-0-----------|
|--------------|----------0-2-|--------2--0-2-|----2-0------|
|--------------|----0---------|---------------|--------4----|
|-------2------|-3------------|--------0------|--------2----|
|-0------------|-------3------|-0-------------|-0-----------|


  Q  Q  Q  E E   Q  Q  Q  E E   Q  E E Q  E E   W
|----0--2--3-2-|--------------|---------------|------|
|-0------------|-5--3--0------|-0-------------|------|
|--------------|----------0-2-|----2-0--------|------|
|--------------|----0---------|--------4--2-1-|-2----|
|-------2------|-3------------|--------2--2-2-|------|
|-0------------|-------3------|-0-------------|-0----|


Duration Legend
---------------
W - whole; H - half; Q - quarter; E - 8th; S - 16th; T - 32nd;
 X - 64th; a - acciaccatura
+ - note tied to previous; . - note dotted;
 .. - note double dotted
Uncapitalized letters represent notes that are staccato (1/2 duration)
Irregular groupings are notated above the duration line
Duration letters will always appear directly above the note/fret 
number it represents the
duration for.  Duration letters with no fret number below them 
represent rests. 
Multi-bar rests are notated in the form Wxn,
 where n is the number of bars to rest for.  Low
melody durations appear below the staff

Tablature Legend
----------------
 h   - hammer-on
 p   - pull-off
 b   - bend
 pb  - pre-bend
 r   - bend release (if no number after the r, then release immediately)
 /\  - slide into or out of (from/to "nowhere")
 s   - legato slide
 S   - shift slide
  - natural harmonic
[n]  - artificial harmonic
n(n) - tapped harmonic
 ~   - vibrato
 tr  - trill
 T   - tap
 TP  - trem. picking
 PM  - palm muting
\n/  - tremolo bar dip; n = amount to dip
 \n  - tremolo bar down
 n/  - tremolo bar up
/n\  - tremolo bar inverted dip
 =   - hold bend; also acts as connecting device for hammers/pulls
 <>  - volume swell (louder/softer)
 x   - on rhythm slash represents muted slash
 o   - on rhythm slash represents single note slash

Misc Legend
-----------
 |  - bar
||  - double bar
||o - repeat start
o|| - repeat end
*|  - double bar (ending)
 :  - bar (freetime)
 $  - Segno
 &  - Coda
Tempo markers -  = BPM(8/16=s8/s16), where s8 = swing 8ths, s16 = swing 16ths
Добавлено: 04.10.2015
Другие материалы по этой песне:
  • Аккорды и текст

Страница создана 04.10.2015
http://primanota.ru/sigmund-groven/reodors-balade-chords.htm
Привет, Гость.
Предлагаем пройти революционный курс по гитаре.
Подарок от PrimaNota.Ru, забирай!