PrimaNota.ru - самый крупный в мире бесплатный архив песенных текстов, аккордов, табулатур и нот


Sigh - Purgatorium - таба, видео

Регистрация Запомнить меня
Войти через:  Facebook Google Twitter Vk Yandex Mail.ru

Sigh - Purgatorium - таба, видео

Печатать
Просмотров: 71
------------------------------------------------------------------------------
                                   Sigh
                                Purgatorium
                        Lead Guitar - Standard Tuning
------------------------------------------------------------------------------

Intro + Solo

|-------------| |----------17-15-------------------------15----------------|
|-------------| |----------------18-17-18-17-15----15-17----18-17-18-17-15-|
|-------------| |-14-17-14----------------------17-------------------------|
|-------------| |----------------------------------------------------------|
|-------------| |----------------------------------------------------------|
|-5^7^8-5-7-4-| |----------------------------------------------------------|

------------------------------------------------------------------------------|
----------------------------------------------------------17-18-17-15-17-15-13|
----14----16----17--------19----19-17-14-14-14^17b--14-17---------------------|
-14----14----14----15--19----19-----------------------------------------------|
------------------------------------------------------------------------------|
------------------------------------------------------------------------------|

Refrain

|-----------------------------------------------------------------------|
|-----------------------------------------------------------------------|
|-----------------------------------------------------------------------|
|---------------------5-3-----------------2---------------------2-4-6-7-|
|-----7-8-8-7-5---7-------7-7-5-3---3---3---5-5-3-2-------2-3-4---------|
|-5-8-----------8---3-------------7---1-------------5-4-5---------------|

                                                  ....pause............
|-----------------------------------------------------------------------|
|-----------------------------------------------------------------------|
|-----------------------------------------------------------------------|
|-----------------------------------------------------------------------|
|-----------------------------------------------------------------------|
|-5^7^8-5^7-4^5----5^7^8-5^7-4^5----5^7^8-5-7-4-------------------------|

Verse 1

|----------------------------------------|
|----------------------------------------|
|----------------------------------------|
|----------------------------------------|
|-7-7--7-7--3-3--3-3--5-5--5-5--6-6--6-6-|
|-5-5--5-5--1-1--1-1--3-3--3-3--4-4--4-4-|

----------------------------------------|
----------------------------------------|
----------------------------------------|
----------------------------------------|
-7-7--7-7--3-3--3-3--5-5--5-5--6-6--6-6-|
-5-5--5-5--1-1--1-1--3-3--3-3--4-4--4-4-|


|-----------------------------------------------------------------------|
|-----------------------------------------------------------------------|
|-----------------------------------------------------------------------|
|-----------------------------------------------------------------------|
|-----------------------------------------------------------------------|
|-5-5^4-4^7-7^5-5^8-8^7-7^10-10-8-7--5-5^4-4^7-7^5-5^8-8^7-7^10-10-8-7--|

|-----------------------------------------------------------------------|
|-----------------------------------------------------------------------|
|-----------------------------------------------------------------------|
|-----------------------------------------------------------------------|
|---------------------5-----------------------------5-------------------|
|-5--7-8--7-5-4--7--8----8-7-8--5--7-8--7-5-4--7--8----8-7-5-5^7^8-5-7-4|

Refrain

|-----------------------------------------------------------------------|
|-----------------------------------------------------------------------|
|-----------------------------------------------------------------------|
|---------------------5-3-----------------2---------------------2-4-6---|
|-----7-8-8-7-5---7-------7-7-5-3---3---3---5-5-3-2-------2-3-4---------|
|-5-8-----------8---3-------------7---1-------------5-4-5---------------|

|-----------------------------------------------------------------------|
|-----------------------------------------------------------------------|
|-----------------------------------------------------------------------|
|---------------------5-3-----------------2---------------------2-4-6-7-|
|-----7-8-8-7-5---7-------7-7-5-3---3---3---5-5-3-2-------2-3-4---------|
|-5-8-----------8---3-------------7---1-------------5-4-5---------------|

|-------------------------------------------------------------------|
|-------------------------------------------------------------------|
|-------------------------------------------------------------------|
|-------------------------------------------------------------------|
|-------------------------------------------------------------------|
|-5^7^8-5^7-4^5----5^7^8-5^7-4^5----5^7^8-5-7-4--5-8-5-8-4-7-4-7--5-|

                                                  ....pause............
-----------------------------------------------------------------------|
-----------------------------------------------------------------------|
-----------------------------------------------------------------------|
-----------------------------------------------------------------------|
-----------------------------------------------------------------------|
-5^7^8-5^7-4^5----5^7^8-5^7-4^5----5^7^8-5-7-4-------------------------|

Verse 2

|----------------------------------------|
|----------------------------------------|
|----------------------------------------|
|----------------------------------------|
|-7-7--7-7--3-3--3-3--5-5--5-5--6-6--6-6-|
|-5-5--5-5--1-1--1-1--3-3--3-3--4-4--4-4-|

----------------------------------------|
----------------------------------------|
----------------------------------------|
----------------------------------------|
-7-7--7-7--3-3--3-3--5-5--5-5--6-6--6-6-|
-5-5--5-5--1-1--1-1--3-3--3-3--4-4--4-4-|


|-----------------------------------------------------------------------|
|-----------------------------------------------------------------------|
|-----------------------------------------------------------------------|
|-----------------------------------------------------------------------|
|-----------------------------------------------------------------------|
|-5-5^4-4^7-7^5-5^8-8^7-7^10-10-8-7--5-5^4-4^7-7^5-5^8-8^7-7^10-10-8-7--|

|-----------------------------------------------------------------------|
|-----------------------------------------------------------------------|
|-----------------------------------------------------------------------|
|-----------------------------------------------------------------------|
|---------------------5-----------------------------5-------------------|
|-5--7-8--7-5-4--7--8----8-7-8--5--7-8--7-5-4--7--8----8-7-5-5^7^8-5-7-4|

Refrain

|-----------------------------------------------------------------------|
|-----------------------------------------------------------------------|
|-----------------------------------------------------------------------|
|---------------------5-3-----------------2---------------------2-4-6---|
|-----7-8-8-7-5---7-------7-7-5-3---3---3---5-5-3-2-------2-3-4---------|
|-5-8-----------8---3-------------7---1-------------5-4-5---------------|

|-----------------------------------------------------------------------|
|-----------------------------------------------------------------------|
|-----------------------------------------------------------------------|
|---------------------5-3-----------------2---------------------2-4-6-7-|
|-----7-8-8-7-5---7-------7-7-5-3---3---3---5-5-3-2-------2-3-4---------|
|-5-8-----------8---3-------------7---1-------------5-4-5---------------|

|-------------------------------------------------------------------|
|-------------------------------------------------------------------|
|-------------------------------------------------------------------|
|-------------------------------------------------------------------|
|-------------------------------------------------------------------|
|-5^7^8-5^7-4^5----5^7^8-5^7-4^5----5^7^8-5-7-4--5-8-5-8-4-7-4-7--5-|

                                                  ....pause............
-----------------------------------------------------------------------|
-----------------------------------------------------------------------|
-----------------------------------------------------------------------|
-----------------------------------------------------------------------|
-----------------------------------------------------------------------|
-5^7^8-5^7-4^5----5^7^8-5^7-4^5----5^7^8-5-7-4-------------------------|

Break

|---------------------------------------------|
|---------------------------------------------|
|---------------------------------------------|
|---------------------------------------------|
|---------7-7-7-5---------5^7^5---------------|
|-5-1-3^0---------8-7-1-0-------8-7-5-4-5-7-4-|

-----------------------------------------------|
-----------------------------------------------|
-----------------------------------------------|
-----------------------------------------------|
---------7-7-7-5---------5^7^5-----------------|
-5-1-3^0---------8-7-1-0-------8-7-5-4-5-7-4-5-|

Verse 3

|-----------------------------------------------|
|-----------------------------------------------|
|-----------------------------------------------|
|-----------------------------------------------|
|-----------------------------------------------|
|-5-7-8--1-3-5--3-5-7-0---1-3-5--0-1-2--4--5--7-|

-----------------------------------------------|
-----------------------------------------------|
-----------------------------------------------|
-----------------------------------------------|
-----------------------------------------------|
-5-7-8--1-3-5--3-5-7-0---1-3-5--0-1-2--4--5--7-|

|--------------------------------------------------------------------------------|
|--------------------------------------------------------------------------------|
|--------------------------------------------------------------------------------|
|-----7---------------7----------------7---------------7-------------------------|
|---7---------------7----------6-----7---------------7-----5^7^5-----------------|
|-5-----5-8--7-1--5-----5-8--7-----5-----5-8--7-1--5-----5-------8-7-5-4-5-7-4-5-|

                                                  ....pause............
|-----------------------------------------------------------------------|
|-----------------------------------------------------------------------|
|-----------------------------------------------------------------------|
|-----------------------------------------------------------------------|
|-----------------------------------------------------------------------|
|-5^7^8-5^7-4^5----5^7^8-5^7-4^5----5^7^8-5-7-4-------------------------|

Part Of Refrain and then...

|-------------------------|
|-------------------------|
|-------------------------|
|---------------------5-3-|
|-----7-8-8-7-5---5-------|
|-5-8-----------8---3-----|

SOLO =)

|-10-11------------------------------------------------------------------|
|----------11-11^13------------------------------------------------------|
|-------12----------12-13-12---------------------------------------------|
|----------------------------15-13-12-13-15------------------------------|
|-------------------------------------------13---15-13-15^13-------------|
|------------------------------------------------------------15-14-12-11-|

--------------------------------------------------------------|
--------------------------------------------------------------|
--------------------------------------------------------------|
-----------8-10--12-13-15-13-17-17-18-15-17-18-15-17-15-13-12-|
------8-10----------------------------------------------------|
-8-10---------------------------------------------------------|

-------------------------------------------------------------|
-------------------------------------------------------------|
-------------------------------------------------------------|
--------------------------8-8^10-8---------------------------|
-------6---6-8b-7-6---6-9----------10-11-10^11^10-8----------|
-6-8-9---9----------9-------------------------------11-10-6--|

---------------------------------------------------------------------------|
---------------------------------------------------------------------------|
---------------------------------------------------------------------------|
-------------------------------3---3-5-3-5-6-5-6-9-10-12-13-12-17-20-15/17-|
-------------3---3-5-3-5-6-5-6---6-----------------------------------------|
-4-3-4-6-4-6---6-----------------------------------------------------------|

Refrain

|-----------------------------------------------------------------------|
|-----------------------------------------------------------------------|
|-----------------------------------------------------------------------|
|---------------------5-3-----------------2---------------------2-4-6---|
|-----7-8-8-7-5---7-------7-7-5-3---3---3---5-5-3-2-------2-3-4---------|
|-5-8-----------8---3-------------7---1-------------5-4-5---------------|

|-----------------------------------------------------------------------|
|-----------------------------------------------------------------------|
|-----------------------------------------------------------------------|
|---------------------5-3-----------------2---------------------2-4-6---|
|-----7-8-8-7-5---7-------7-7-5-3---3---3---5-5-3-2-------2-3-4---------|
|-5-8-----------8---3-------------7---1-------------5-4-5---------------|

Break

|---------------------------------------------|
|---------------------------------------------|
|---------------------------------------------|
|---------------------------------------------|
|---------7-7-7-5---------5^7^5---------------|
|-5-1-3^0---------8-7-1-0-------8-7-5-4-5-7-4-|

---------------------------------------------|
---------------------------------------------|
---------------------------------------------|
---------------------------------------------|
---------7-7-7-5---------5^7^5---------------|
-5-1-3^0---------8-7-1-0-------8-7-5-4-5-7-4-|

-----------------------|
-----------------------|
-----------------------|
-----------------------|
-5^7^5-----------------|
-------8-7-5-4-5-7-4-5-|

                                                  ....pause............
|--------------------------------------------------------------------------|
|--------------------------------------------------------------------------|
|--------------------------------------------------------------------------|
|--------------------------------------------------------------------------|
|------------------------------------------------------------------------7-|
|-5^7^8-5^7-4^5----5^7^8-5^7-4^5----5^7^8-5-7-4--------------------------5-|

                                     The End

Hope you have found the tab correct, in case of mistakes send me a private message.
b= bend the note
Добавлено: 05.06.2013
Другие материалы по этой песне:
  • Аккорды и текст

Страница создана 05.06.2013
http://primanota.ru/sigh/purgatorium-chords.htm
Привет, Гость.
Предлагаем пройти революционный курс по гитаре.
Подарок от PrimaNota.Ru, забирай!