PrimaNota.ru - самый крупный в мире бесплатный архив песенных текстов, аккордов, табулатур и нот


Sienna Skies - Directions - таба, видео

Регистрация Запомнить меня
Войти через:  Facebook Google Twitter Vk Yandex Mail.ru

Sienna Skies - Directions - таба, видео

Печатать
Просмотров: 203
---------------------------------------------------------------------------
                             Sienna Skies - Directions
---------------------------------------------------------------------------

Tabbed by: Cobjay (www.youtube.com/user/cobjayguitar)
Email: cobjay_is_here@hotmail.com

Tuning: Drop C# [C#,G#,C#,F#,A#,D#]

Check out my cover: http://www.youtube.com/watch?v=HjTiNUNUf6Y

Intro
Guitar 1.
D#|-------------------------------------------------12h13---------|
A#|---10--------------------12---10-----------------------13------|
F#|-----10-9----------9-10---------10-9--------9-10---------------|
C#|----------10---10-------------------10---10--------------------|
G#|---------------------------------------------------------------|
C#|---------------------------------------------------------------|

D#|---------------------------------------------------------------|
A#|---10--------------------12---10-----------------11------------|
F#|-----10-9----------9-10---------10-9--------9-10---------------|
C#|----------10---10-------------------10---10--------------------|
G#|---------------------------------------------------------------|
C#|---------------------------------------------------------------|

D#|-------------------------------------------------12h13---------|
A#|---10--------------------12---10-----------------------13------|
F#|-----10-9----------9-10---------10-9--------9-10---------------|
C#|----------10---10-------------------10---10--------------------|
G#|---------------------------------------------------------------|
C#|---------------------------------------------------------------|

D#|---------------------------------------------------------------|
A#|---10--------------------12---10-----------------11------------|
F#|-----10-9----------9-10---------10-9--------9-10---------------|
C#|----------10---10-------------------10---10--------------------|
G#|---------------------------------------------------------------|
C#|---------------------------------------------------------------|

Guitar 2. 
D#|-------------------------------------------|
A#|-------------------------------------------|
F#|-------------------------------------------|
C#|--0-----8-----5-----10---------------------| x4
G#|--0-x8--8-x8--5-x8--10-x8------------------|
C#|--0-----8-----5-----10---------------------|

Verse
D#|--------------------------------------------|
A#|---6--------------6-------------------------|
F#|---9b-------------9b------------------------|
C#|--------------------------------------------|
G#|-0----0-0-0000--0----0-0-0000---------------|
C#|-0----0-0-0000--0----0-0-0000---------------|
    .    . . ....  .    . . ....

D#|----------------------------------------|
A#|---6--------------6--------6------------|
F#|---9b-------------9b-----9---9----------|
C#|----------------------------------------|
G#|-0----0-0-0000--0----0-0----------------|
C#|-0----0-0-0000--0----0-0----------------|
    .    . . ....  .    . . 

D#|----------------------------------------|
A#|---6--------------6--------6------------|
F#|---9b-------------9b-----9---9----------|
C#|----------------------------------------|
G#|-0----0-0-0000--0----0-0----------------|
C#|-0----0-0-0000--0----0-0----------------|
    .    . . ....  .    . . 
D#|----------------------------------------|
A#|---6--------------6--------6------------|
F#|---9b-------------9b-----9---9----------|
C#|----------------------------------------|
G#|-0----0-0-0000--0----0-0----------------|
C#|-0----0-0-0000--0----0-0----------------|
    .    . . ....  .    . . 

D#|----------------------------------------|
A#|---6--------------6--------6------------|
F#|---9b-------------9b-----9---9----------|
C#|----------------------------------------|
G#|-0----0-0-0000--0----0-0----------------|
C#|-0----0-0-0000--0----0-0----------------|
    .    . . ....  .    . . 

D#|----------------------------------------|
A#|----------------------------------------|
F#|----------------------------------------|
C#|----------------------------------------|
G#|-0~-0~-0~---0-0000—-0~-0~-0~---0-0000---|
C#|-0~-0~-0~---0-0000—-0~-0~-0~---0-0000---|
    .  .  .    . ....  .  .  .    . ....

D#|------------------------------------------|
A#|------------------------------------------|
F#|------------------------------------------|
C#|------------------------------------------|
G#|-0~-0~-0~---0-0000—-0~-0~-0~--0000--0000--|
C#|-0~-0~-0~---0-0000-—0~-0~-0~--0000--0000--|
    .  .  .    . ....  .  .  .   ....  ....

D#|----------------------------------------|
A#|----------------------------------------|
F#|----------------------------------------|
C#|----------------------------------------|
G#|-0~-0~-0~---0-0000—-0~-0~-0~---0-0000---|
C#|-0~-0~-0~---0-0000—-0~-0~-0~---0-0000---|
    .  .  .    . ....  .  .  .    . ....

D#|-----------------------------------------------|
A#|-----------------------------------------------|
F#|-----------------------------------------------|
C#|-----------------------------------------------|
G#|-0~-0~-0~---0-0000—-0~-0~-0~---0-0000--0~-0~-0~|
C#|-0~-0~-0~---0-0000—-0~-0~-0~---0-0000—-0~-0~-0~|
    .  .  .    . ....  .  .  .    . ....


Chorus
D#|-------------------------------------------------12h13---------|
A#|---10--------------------12---10-----------------------13------|
F#|-----10-9----------9-10---------10-9--------9-10---------------|
C#|----------10---10-------------------10---10--------------------|
G#|---------------------------------------------------------------|
C#|---------------------------------------------------------------|

D#|---------------------------------------------------------------|
A#|---10--------------------12---10-----------------11------------|
F#|-----10-9----------9-10---------10-9--------9-10---------------|
C#|----------10---10-------------------10---10--------------------|
G#|---------------------------------------------------------------|
C#|---------------------------------------------------------------|

D#|-------------------------------------------------12h13---------|
A#|---10--------------------12---10-----------------------13------|
F#|-----10-9----------9-10---------10-9--------9-10---------------|
C#|----------10---10-------------------10---10--------------------|
G#|---------------------------------------------------------------|
C#|---------------------------------------------------------------|

D#|---------------------------------------------------------------|
A#|---10--------------------12---10-----------------11------------|
F#|-----10-9----------9-10---------10-9--------9-10---------------|
C#|----------10---10-------------------10---10--------------------|
G#|---------------------------------------------------------------|
C#|---------------------------------------------------------------|

Verse 2. 

D#|----------------------------------------------------------|
A#|----------------------------------------------------------|
F#|----------------------------------------------------------|
C#|----------------------------------------------------------|
G#|-00-00-000---000--0000-0000--00-00-000---000--0000-0000---|
C#|-00-00-000---000--0000-0000--00-00-000---000--0000-0000---|
    .. .. ...   ...  .... ....  .. .. ...   ...  .... ....


D#|-------------------------------------------------12h13------|
A#|-------------------------------------------------------13---|
F#|--------------------------------------------9-10------------|
C#|-----------------------------------------10-----------------|
G#|-00-00-000---000--0000-0000--00-00-000----------------------|
C#|-00-00-000---000--0000-0000--00-00-000----------------------|
    .. .. ...   ...  .... ....  .. .. ...  

Chorus
D#|-------------------------------------------------12h13---------|
A#|---10--------------------12---10-----------------------13------|
F#|-----10-9----------9-10---------10-9--------9-10---------------|
C#|----------10---10-------------------10---10--------------------|
G#|---------------------------------------------------------------|
C#|---------------------------------------------------------------|

D#|---------------------------------------------------------------|
A#|---10--------------------12---10-----------------11------------|
F#|-----10-9----------9-10---------10-9--------9-10---------------|
C#|----------10---10-------------------10---10--------------------|
G#|---------------------------------------------------------------|
C#|---------------------------------------------------------------|

D#|-------------------------------------------------12h13---------|
A#|---10--------------------12---10-----------------------13------|
F#|-----10-9----------9-10---------10-9--------9-10---------------|
C#|----------10---10-------------------10---10--------------------|
G#|---------------------------------------------------------------|
C#|---------------------------------------------------------------|

D#|---------------------------------------------------------------|
A#|---10--------------------12---10-----------------11------------|
F#|-----10-9----------9-10---------10-9--------9-10---------------|
C#|----------10---10-------------------10---10--------------------|
G#|---------------------------------------------------------------|
C#|---------------------------------------------------------------|

D#|------------------------------------------------------|
A#|------------------------------------------------------|
F#|-9-----12-----14-----12------7-----9-----12-----------|
C#|-X-x12--X-x4---X-x16--X-x12--X-x8--X-x4---X-x4--------|
G#|-7-----10-----12-----10------5-----7-----10-----------|
C#|------------------------------------------------------|

D#|---------------------------20Tr--22Tr-------|
A#|--18Tr--20Tr---22Tr--15Tr---x16----x8-------|
F#|---x24----x8----x24----x8-------------------|
C#|--------------------------------------------|
G#|--------------------------------------------|
C#|--------------------------------------------|

D#|-20/22\20-17---20/22\20--15---15/17\15----------------|
A#|------------------------------------------------------|
F#|------------------------------------------------------|
C#|------------------------------------------------------|
G#|------------------------------------------------------|
C#|------------------------------------------------------|


D#|--17---------------------20---17-------------------20/22\20---|
A#|----18-17----------17-18--------18-17--------17-18------------|
F#|-----------17---17-------------------17---17------------------|
C#|--------------------------------------------------------------|
G#|--------------------------------------------------------------|
C#|--------------------------------------------------------------|

D#|--17---------------------20---17x8-15x5-15h17p15--12-12/13v---|
A#|----18-17----------17-18--------------------------------------|
F#|-----------17---17--------------------------------------------|
C#|--------------------------------------------------------------|
G#|--------------------------------------------------------------|
C#|--------------------------------------------------------------|

End. 
Добавлено: 05.03.2012
Вам также может быть интересно:
Другие материалы по этой песне:

Страница создана 05.03.2012
http://primanota.ru/sienna-skies/directions-chords.htm
Привет, Гость.
Предлагаем пройти революционный курс по гитаре.
Подарок от PrimaNota.Ru, забирай!