PrimaNota.ru - самый крупный в мире бесплатный архив песенных текстов, аккордов, табулатур и нот


Sielun Veljet - On Mulla Unelma - таба, видео

Регистрация Запомнить меня
Войти через:  Facebook Google Twitter Vk Yandex Mail.ru

Sielun Veljet - On Mulla Unelma - таба, видео

Печатать
Просмотров: 30
Уроки эстрадного вокала в Санкт-Петербурге
Sielun Veljet - On Mulla Unelma - Levyltä L'amourha (1985) - Soinnut, lyriikat ja tabit 

Chords and tabs by: RTV aka TheIronicTea

http://www.sielunveljet.com/

INTRO:

On mulla unelma: vapaa maailma
Ilman rajoja, kauniita sanoja vai?
No, on on on, mutta älä sure ystäväni
Mä teen omat tehtäväni
Sä saat tehdä mitä sua huvittaa,
Ihan mitä vaan mutt' mull' on unelma!

VERSE:

C# E

          C#          E
On mulla unelma!
          C#          E
Suuri unelma!
          C#          E
On mulla unelma

C# E x2

Melody during verse (how Jukka Orma plays it):

MELODY 1# x4
e|-------------------------------------------------------------------------------------------------|
B|--5----------------5-----------5--------------9------------------9---------------9---------------|
G|------4---6-----------4---6--------4---6--------------9-------------------9---------------9------|
D|--------------------------------------------------9-------------------9-------------9------------|
A|-------------------------------------------------------------------------------------------------|
E|-------------------------------------------------------------------------------------------------| 


 
C#                                  E
Mä pyyhin perseeni siniristilipulla
C#                                      E
Ja panen LSD:tä syömään Suomen leijonan
C#
Mä haluun elää ja kuolla
C#
Tulla tanssaan tänne päälle maan

Valaa mä en vanno mitään

CHORUS:

H - C x4

Siniristilippumme, älä diivaile turhaan taivasta vasten
Siniristilippumme - Yhden leijonan murha on leikkiä lasten
Siniristilippumme! x4

C           D#
Mä en vanno mitään x4

VERSE:

C# E + Melody 1#

Mä revin vapaiksi kädet tähtilipusta
Varastan sirpin sekä vasaran
Mä haluun elää ja kuolla
Tulla tanssaan tänne päälle maan
Valaa mä en vanno mitään

CHORUS:

H - C

Siniristilippumme, älä diivaile turhaan taivasta vasten
Siniristilippumme - Yhden leijonan murha on leikkiä lasten
Siniristilippumme! x4

C           D#
Mä en vanno mitään x4

VERSE:

Lalalalaa-laa-laa

MELODY 2# x2

      C#    E                           H    C#        E                         H     C#                
e|---------------------------------------------------------------------------------------------|
B|---------------------------------------------------------------------------------------------|
G|----6-----9---------------------------4-----6--------9-------------------------4-----6-------|
D|----6-----9-----6---5-----------------4-----6--------9-----6---5---------------4-----6-------|
A|----4-----7--------------7---6--------2-----4--------7--------------7---6------2-----4-------|
E|---------------------------------------------------------------------------------------------| 

MELODY 1# x4

C#                                  E
Mä pyyhin perseeni siniristilipulla
C#                                      E
Ja panen LSD:tä syömään Suomen leijonan
C#
Mä haluun elää ja kuolla
C#
Tulla tanssaan tänne päälle maan

Valaa mä en vanno mitään

CHORUS:

H - C
Siniristilippumme, älä diivaile turhaan taivasta vasten
Siniristilippumme - Yhden leijonan murha on leikkiä lasten
Siniristilippumme! x4

C        D#        C      D#
On mulla unelma, vapaa maailma
C           D#    C        D#
Ilman rajoja, on mulla unelma!
Добавлено: 15.04.2016
Вам также может быть интересно:
Другие материалы по этой песне:
  • Аккорды и текст

Страница создана 15.04.2016
http://primanota.ru/sielun-veljet/on-mulla-unelma-chords.htm
Привет, Гость.
Предлагаем пройти революционный курс по гитаре.
Подарок от PrimaNota.Ru, забирай!