PrimaNota.ru - самый крупный в мире бесплатный архив песенных текстов, аккордов, табулатур и нот


Siege - Drop Dead - таба, видео

Регистрация Запомнить меня
Войти через:  Facebook Google Twitter Vk Yandex Mail.ru

Siege - Drop Dead - таба, видео

Печатать
Просмотров: 146
Уроки эстрадного вокала в Санкт-Петербурге
Siege 
Drop Dead

Tabbed by: Kapteeni Haddoc

Tuning: E standard

Intro
e--------------|
B--------------|
G--7-----------|
D--7--4--6--8--|
A--5--4--6--8--|
E-----2--4--6--|
Riff 1
e-----------------------------------------------------|
B-----------------------------------------------------|
G-----------------------------------------------------|
D-6666--8888--66666--8888--6666--8888--9999--10101010-|
A-6666--8888--66666--8888--6666--8888--9999--10101010-|
E-4444–-6666--44444--6666--4444--6666--7777--8-8-8-8--|
Riff 2
e--------------------|
B--------------------|
G--------------------|
D-5-555555--6--7--8--|
A-5-555555--6--7--8--|
E–3-333333--4--5--6--|
Riff 3
e-----------|
B-----------|
G-----------|
D--6--7--8--|
A--6--7--8--|
E–-4--5--6--|
Riff 4
e--------------------------------------|
B--------------------------------------|
G--------------------------------------|
D--6666--8--6666--10--6666--8--6666--8-|
A--6666--8--6666--10--6666--8--6666--8-|
E–-4444--6--4444--8---4444--6--4444--6-|

http://www.myspace.com/siegehardcore
http://en.wikipedia.org/wiki/Siege_%28band%29
Добавлено: 24.03.2012
Вам также может быть интересно:
Другие материалы по этой песне:
  • Аккорды и текст

Страница создана 24.03.2012
http://primanota.ru/siege/drop-dead-chords.htm
Привет, Гость.
Предлагаем пройти революционный курс по гитаре.
Подарок от PrimaNota.Ru, забирай!