PrimaNota.ru - самый крупный в мире бесплатный архив песенных текстов, аккордов, табулатур и нот


Siddhartha - Lunanai - таба, видео

Регистрация Запомнить меня
Войти через:  Facebook Google Twitter Vk Yandex Mail.ru

Siddhartha - Lunanai - таба, видео

Печатать
Просмотров: 65
Уроки эстрадного вокала в Санкт-Петербурге
-------------------------------------------------------------------------------
			     Lunanai - Siddharta
-------------------------------------------------------------------------------

Artist:Siddharta
Song:Lunanai 
Tabbed by:Klemen Korošec
E-mail:klemen.korosec@volja.net
Edit by:AliAs (alias.ag@email.si)

Intro:

Guitar 1:
E|----------------------------------------|
B|-----4-5------------------5-7-9-7-------|
G|-----6-6---6/8--8-----8-6-6-6-8-8-9-8---|  -- 4x
D|---6--------------7-6---7-------------9-|
A|-4---------4/6--------------------------|
E|----------------------------------------|

Guitar 2:
e|-------------------------------------------------------------------------|
B|-----------4--------------7--5--7---7br-5-4-5-7-4----7br-5-4-5-7-7/9-5---|
G|-6-4-6-4-6------6-4-6-4-6------------------------------------------------|
D|-------------------------------------------------------------------------|
A|-------------------------------------------------------------------------|
E|-------------------------------------------------------------------------|

Guitar 1:
e|----------------------------------------------------------------------|
B|----------------------------------------------------------------------|
G|-----------------------------------------------------2---4---9--------|
D|---------------6-4-------------------1-4-2-1---------2---4---9--------|
A|-----4-6-7-4-7-----7-6-7-6-4-2-4-2-4---------4-2-----0---2---7--------|
E|-7-7---------------------------------------------5-4------------------|

Guitar 2:
e|----------------------------------------------------------------------|
B|----------------------------------------------------------------------|
G|-----------------------------------------------------2---4---9--------|
D|---------------6-4-------------------1-4-2-----------2---4---9--------|
A|-----4-6-7-4-7---2-----------2-4-2-4-----0-----------0---2---7--------|
E|-7-7-------------2-----------------------0----------------------------|


verse 1:

	F#m        	   E
	So mi dali te, ki dan kradejo, 
	D		 F#m
	so mi dali prevarante.
	F#m		    E
	Zdaj ne vem, če bi našel domov, 
	D		 F#m
	zato drugam bom šel. 
	F#m	 E	       D		F#m
	Daj, če nisi dojel in nisi verjel ti povem le:
	F#m 		E	     D		          F#m
	Že bo jutro naslednjega dne in smejal se bom drugje. 

Guitar 2:
   F#m     E       D       F#m
e|-14--14--12--12--10--10--14--14-14--|
B|-14--14--12--12--10--10--14--14-14--|
G|-14--14--13--13--11--11--14--14-14--|  -- 4x
D|------------------------------------|
A|------------------------------------|
E|------------------------------------|


Step to chours 1:

Guitar 1:
   F#m A   E   E2   D    F#m E
e|-------------------------------|
B|-------------------------------|
G|-------------/9---7------------|  -- 2x
D|-4---7---2---/9---7----4---2---|
A|-4---7---2---/7---5----4---2---|
E|-2---5---0-------------2---0---|

Guitar 2:
   F#m A   E   Bm   D    F#m E
e|-------------------------------|
B|-------------------------------|
G|-11--14--9---16----------------|  -- 2x
D|------------------12---16--14--|
A|-9---12--7---14----------------|
E|------------------10---14--12--|

	F#m  A  E  (E2)
	D          F#m  E
	Ej, le do kam znal bi?
	F#m  A  E  (E2)
	D          F#m  E
	Ej, le do kam, sam si?!


Chours 1:

Guitar 1:
   A     E     Bm    E2    A     E     Bm     A    E
e|--------------------------------------------------------------------|
B|--------------------------------------------------------------------|
G|-------------4-----/9----------------4------------------------------|
D|-7-----2-----4-----/9----7-----2-----4------7----6-br-br-br-br----\-|
A|-7-----2-----2-----/7----7-----2-----2------7-----------------------|
E|-5-----0-----------------5-----0------------5-----------------------|

Guitar 2:
   A     E     Bm    E2    A     E     Bm     A    E
e|--------------------------------------------------------------------|
B|--------------------------------------------------------------------|
G|-------------------9------------------------------------------------|
D|-7-----2-----9-------9---7-----2-----9------7----6-br-br-br-br----\-|
A|-7-----2-----9-----------7-----2-----9------7-----------------------|
E|-5-----0-----7-----------5-----0-----7------5-----------------------|

	A        E		    Bm   E2
	So mi dejali, da sam bom ostal. 
	A        E               Bm    
	So mi dajali osamljeni stol. 
			    A      E
	Ne mine dan, ko ne nosim okov.


Verse 2:

	F#m            E          D                 F#m
	Do nadaljnega bo vse lepo, z belo senco za mano.
	               E         D                     F#m
	Meni Sonce in Luna sta to, kar njej je moje telo.
	          E               D                 F#m
	Zdaj, ko hodim naprej in vidim naprej, govorim le: 
	                 E          D                F#m
	že bo enkrat nastopil ta dan, ko ne bom več sam. 

Guitar 2:
   F#m     E       D       F#m
e|-14--14--12--12--10--10--14--14-14--|
B|-14--14--12--12--10--10--14--14-14--|
G|-14--14--13--13--11--11--14--14-14--|  -- 4x
D|------------------------------------|
A|------------------------------------|
E|------------------------------------|


Step to chours 2:

Guitar 1:
   F#m A   E   E2   D    F#m E
e|-------------------------------|
B|-------------------------------|
G|-------------/9---7------------|  -- 2x
D|-4---7---2---/9---7----4---2---|
A|-4---7---2---/7---5----4---2---|
E|-2---5---0-------------2---0---|

Guitar 2:
   F#m A   E   Bm   D    F#m E
e|-------------------------------|
B|-------------------------------|
G|-11--14--9---16----------------|  -- 2x
D|------------------12---16--14--|
A|-9---12--7---14----------------|
E|------------------10---14--12--|

	F#m  A  E  (E2)
	D          F#m  E
	Ej, le do kam znal bi?
	F#m  A  E  (E2)
	D          F#m  E
	Ej, le do kam, sam si?!


Chours 2:

Guitar 1:
   A     E     Bm    E2    A     E     Bm     A    E
e|-------------------------------------------------------------------|
B|-------------------------------------------------------------------|
G|-------------4-----/9----------------4-----------------------------|
D|-7-----2-----4-----/9----7-----2-----4------7----6-br-br-br-br-----|
A|-7-----2-----2-----/7----7-----2-----2------7----------------------|
E|-5-----0-----------------5-----0------------5----------------------|

Guitar 2:
   A     E     Bm    E2    A     E     Bm     A    E
e|-------------------------------------------------------------------|
B|-------------------------------------------------------------------|
G|-------------------9-----------------------------------------------|
D|-7-----2-----9-------9---7-----2-----9------7----6-br-br-br-br-----|
A|-7-----2-----9-----------7-----2-----9------7----------------------|
E|-5-----0-----7-----------5-----0-----7------5----------------------|

	A        E		    Bm   E2
	So mi dejali, da sam bom ostal. 
	A        E               Bm    
	So mi dajali osamljeni stol. 
			    A      E
	Ne mine dan, ko ne nosim okov.


Pre solo:

Guitar 1:
e|-----------------------------------------------------------------|
B|-----------------------------------------------------------------|
G|-----------------------4-6-4---------------------------4-6-6-6-6-|
D|-4-6-7---7-6-----4-6-7-------6---4-6-7---7-6-----4-6-7-----------|
A|-------------7-------------------------------7-------------------|
E|-----------------------------------------------------------------|
         

e|-------------------------------------------------------------------------------|
B|-------------------------------------------------------------------------------|
G|-----------------------4-6-4---------------------------4-6-4-------------------|
D|-4-6-7---7-6-----4-6-7-------6---4-6-7---7-6-----4-6-7-------7-4-6-7-6---6-7-6-|
A|-------------7-------------------------------7---------------------------------|
E|-------------------------------------------------------------------------------|

Guitar 2:
e|--------------------------7-9-7------------------------------7-9-9-9-9-|
B|-7-9-10---10-9-----7-9-10-------9---7-9-10---10-9-----7-9-10-----------|
G|---------------9----------------------------------9--------------------|
D|-----------------------------------------------------------------------|
A|-----------------------------------------------------------------------|
E|-----------------------------------------------------------------------|
          M        M                M        M        M

e|--------------------------7-9-7------------------------------7-9-7----------------------|
B|-7-9-10---10-9-----7-9-10-------9---7-9-10---10-9-----7-9-10-------10-7-9-10-9---9-10-9-|
G|---------------9----------------------------------9-------------------------------------|
D|----------------------------------------------------------------------------------------|
A|----------------------------------------------------------------------------------------|
E|----------------------------------------------------------------------------------------|



Solo:

Guitar 1:
e|-------------------------------------------------------------------------|
B|-7----7-7-7----------7-9--9-9-10-12-0-0-12v--0-0-10-0-12--0-10-0-10-9-7--|
G|----6-------6-7-9--9-----------------------------------------------------|
D|-------------------------------------------------------------------------|
A|-------------------------------------------------------------------------|
E|-------------------------------------------------------------------------|

e|--------------------------------------------------------------|
B|-10-10-9-9-7-7--------------------------------------7-9-10-12-|
G|---------------9-9-6-6----------6---------------6-9-----------|
D|-----------------------9-9-7-9----9------7-9--9---------------|
A|------------------------------------9--9----------------------|
E|--------------------------------------------------------------|

e|-----14---------------0-0-0--0-7-0-5--0-7--0-5--0-7--0-5--5---|
B|-12b-----------12-12----------------------------------------7-|
G|--------11-11-------------------------------------------------|
D|--------------------------------------------------------------|
A|--------------------------------------------------------------|
E|--------------------------------------------------------------|

e|-----------------------------7--------------------------------------------|
B|----10-12-14-10----12--0-7-9---10-9-10----10---10---10-9---7--------------|
G|-11-------------11-------------------------------------------9-6----------|  -- 2x
D|----------------------------------------7----7----7----------------9-7----|
A|-----------------------------------------------------------------------9--|
E|--------------------------------------------------------------------------|

e|-------------------------------|
B|-------------------------------|
G|-9-10-----9-10-----9-10---9----|
D|-------------------------------|
A|-------------------------------|
E|-------------------------------|
      

Guitar 2:
              3x                        2x
   F#m   E     Bm    E       F#m   E     D     E
e|-------------------------|-------------------------|-----------------------------|
B|-------------------------|-------------------------|-----------------------------|
G|-10----9-----------9-----|-10----9-----7-----9-----|-----------------------------|
D|-10----9-----9-----9-----|-10----9-----7-----9-----|-----------------------------|
A|-9-----7-----9-----7-----|-9-----7-----5-----7-----|-7-9-----7-9-----7-9---7-----|
E|-------------7-----------|-------------------------|-----------------------------|
                                                        

Verse 3:

	F#m            E
	Le kako, le kako 
	               D                 F#m
	bi dejal v slovo, da ne mislijo name?
	                    E
	Saj ne vem, saj ne vem,
	                  D                 F#m
	kaj nastalo bi potem, po koraku izbranem. 
	         E      D                   F#m
	Mi Luna naj posveti na mesto izgubljeno.
	               E        D                F#m
	Le takrat potopil bi vse, kar izdalo bi me. 

Guitar 1:
   F#m     E       D       F#m
e|---------------------------------|
B|---------------------------------|
G|-11--11--9---9---7---7---11--11--|  -- 4x
D|---------------------------------|
A|-9---9---7---7---5---5---9---9---|
E|---------------------------------|
   

Guitar 2:
   F#m              E            D             F#m
e|--------------------------------------------------------------|
B|------------------------------------------------10-9----------|
G|-----11------11--------------------7------7----------11-9-----|
D|---------------------9-7-6--------------------------------11--|
A|-9-9----9-9------7-7--------7--5-5---5-5-----9----------------|
E|--------------------------------------------------------------|
  

   F#m              E            D             F#m
e|-----------------------------------------------------------------|
B|-----------------------------------------------------------------|
G|-----11------11--------------------7------7------11-11-9-9-------|
D|---------------------7-6-9--6------------------------------11-11-|
A|-9-9----9-9------7-7-----------5-5---5-5-----9-9-----------------|
E|-----------------------------------------------------------------|
  

   F#m        E          D            F#m
e|-----------------------------------------------------|
B|-----------------------------------------------------|
G|--14------\--9------9-----7---7--7---11-9------------|
D|--16f-----\-------------------------------11-9-------|
A|----------------7-7----5----5------------------12-11-|
E|-----------------------------------------------------|
                 

   F#m              E            D             F#m
e|-----------------------------------------------------------------|
B|-------------------------------------------------10-10-9-9-------|
G|-----11------11--------------------7------7----------------11-11-|
D|---------------------7-6-9--6------------------------------------|
A|-9-9----9-9------7-7-----------5-5---5-5-----9-9-----------------|
E|-----------------------------------------------------------------|
 


Step to chours 3:

Guitar 1:
   F#m A   E   E2   D    F#m E
e|-------------------------------|
B|-------------------------------|
G|-------------/9---7------------|  -- 2x
D|-4---7---2---/9---7----4---2---|
A|-4---7---2---/7---5----4---2---|
E|-2---5---0-------------2---0---|

Guitar 2:
   F#m A   E   Bm   D    F#m E
e|-------------------------------|
B|-------------------------------|
G|-11--14--9---16----------------|  -- 2x
D|------------------12---16--14--|
A|-9---12--7---14----------------|
E|------------------10---14--12--|

	F#m  A  E  (E2)
	D          F#m  E
	Ej, le do kam znal bi?
	F#m  A  E  (E2)
	D          F#m  E
	Ej, le do kam, sam si?!


Chours 3:

Guitar 1:
   A     E     Bm    E2
e|-------------------------|
B|-------------------------|
G|-------------4-----/9----|  -- 4x
D|-7-----2-----4-----/9----|
A|-7-----2-----2-----/7----|
E|-5-----0-----------------|

Guitar 2:
   A     E     Bm    E2
e|-------------------------|
B|-------------------------|
G|-------------------9-----|  -- 4x
D|-7-----2-----9-------9---|
A|-7-----2-----9-----------|
E|-5-----0-----7-----------|

	A        E		    Bm   E2
	So mi dejali, da sam bom ostal. 
	A        E               Bm   E2
	So mi dajali osamljeni stol. 


Outro:

Guitar 2:

   A  E  Bm  E2  A  E  Bm  E2  A  E  Bm  E2  

Guitar 1:  
e|-----------------------------------------|
B|-----------------------------------------|
G|-9-----10--13--14----16------18----19----|
D|-----------------------------------------| 
A|-7-----9---11--12----14------16----17----|
E|-----------------------------------------|

e|----------------------------------------------------------------|
B|----------------------------------------------------------------|
G|-/21-\-/21-\-/21-\-/21-\-/21--19--18--16--14--13--11----9-------|   
D|----------------------------------------------------------------|   
A|-/19-\-/19-\-/19-\-/19-\-/19--17--16--14--12--11--9-----7-------| 
E|----------------------------------------------------------------|

e|-----------------------------------------------|
B|-----------------------------------------------|
G|---------------9-9-9---------------------9-11--|
D|--------9-9-9---------9-9-9--------------------|
A|-7-7-7-----------------------------------------|
E|-----------------------------------------------|
 

Guitar 2:
   A     E     Bm    E2
e|-------------------------|
B|-------------------------|
G|-------------4-----/9----|  -- 3x
D|-7-----2-----4-----/9----|
A|-7-----2-----2-----/7----|
E|-5-----0-----------------|

   A     E     Bm    A    E
e|--------------------------------------------|
B|--------------------------------------------|
G|--------------------------------------------|
D|-7-----2-----9-----7----2-------------------|
A|-7-----2-----9-----7----2--------------7-9--|
E|-5-----0-----7-----5----0-------------------|

Thanks for your rating and comments!:P

******************
*| /  slide up   *
*| \  slide down *
*| h  hammer-on  *
*| p  pull-off   *
*| ~  vibrato    *
*| +  harmonic   *
*| x  Mute note  *
******************
===============================================================================
Добавлено: 30.08.2013
Другие материалы по этой песне:
  • Аккорды и текст

Страница создана 30.08.2013
http://primanota.ru/siddhartha/lunanai-chords.htm
Привет, Гость.
Предлагаем пройти революционный курс по гитаре.
Подарок от PrimaNota.Ru, забирай!