PrimaNota.ru - самый крупный в мире бесплатный архив песенных текстов, аккордов, табулатур и нот


Siddharta - Vojna Idej - аккорды и текст, таба, видео

Регистрация Запомнить меня
Войти через:  Facebook Google Twitter Vk Yandex Mail.ru

Siddharta - Vojna Idej - аккорды и текст, таба, видео

Печатать
Просмотров: 130
Vojna Idej
Siddharta
        ## SIDDHARTA - VOJNA IDEJ (AKUSTIČNA VERZIJA)

Dm  B  F  Am
Dm  B  F  Am
Dm  C  F  Gm
Dm  C  F  Gm  G

                    3x
E|------------------------------------------|-------------------------------------------------|
B|---3--3-5--5-6--6-8--8-6--5-6-5h6p5-3-5-3-|---3--3-5--5-6--6-8--8-6--5-6-5h6p5-3-5-3--------|
G|-2----------------------------------------|-2----------------------------------------2------|
D|------------------------------------------|--------------------------------------------0----|
A|------------------------------------------|-------------------------------------------------|
E|------------------------------------------|-------------------------------------------------|

Dm    C
Vojna idej ...
Gm           Dm
kam naj grem naprej?
Dm            C
V malo skrito vas,
Gm             Dm
v bolj umirjen čas?

  F        C
A zadaj me hladi
Gm                Dm
veter jeklenih zveri,
F         C
ki poslušajo,
Gm            Dm
kar gorile tulijo:


 Gm        B      C
»Dovolj je vina – Mesto naj pije vodo!«
      B         C         Dm      C
Mojim sanjam bo raztrgala krila
in svoboda umre.
       Gm        B        Dm      C      
Še ljubezen bo dobila pravila,
                  Dm   C   Gm   Dm
če ne bomo rekli NE!!!

Dm      C
Vojna idej
 Gm        Dm
kuje utrujene.
B       C
Vojna idej
 Gm        Dm
misli prepove.

 F         C
Velike ljudi
       Gm        Dm
dobro vino radosti ...
   F           C
A voda skozi hlev
      Gm          Dm
bo odnesla ves plevel!

Dm G  C
Dm G  C

E|-10--13-12-----------------------------------------------------|
B|---9----------9/7-9--7--7/9---10/12--10---9/7------------------|
G|---------------------------------------------------------------|
D|---------------------------------------------------------------|
A|---------------------------------------------------------------|
E|---------------------------------------------------------------|

Dm     Gm        C
Nas nahrani Voda-Vino
Dm   Gm        C   
nam obarva mesečino.

Dm Gm C Dm
Gm                   C
»Dovolj je vina!? – Naj še kdo reče tako!«

Dm   B     F     Am     Dm   B   F     Am
Ne ubijam sanj! Ravno zato, ker nisem junak!
Dm     C      F   Gm       Dm    C  F   Gm
Čas ustavil vsaj malo bom zdaj, da zajamem zrak!

Dm  B  F  Am
Dm  B  F  Am
Dm  C  F  Gm
Dm  C  F  Gm

Tabbed by sidd1707
Добавлено: 07.05.2012
Другие материалы по этой песне:
  • Аккорды и текст

Страница создана 07.05.2012
http://primanota.ru/siddharta/vojna-idej-chords.htm
Привет, Гость.
Предлагаем пройти революционный курс по гитаре.
Подарок от PrimaNota.Ru, забирай!