PrimaNota.ru - самый крупный в мире бесплатный архив песенных текстов, аккордов, табулатур и нот


Siddharta - Ohm - таба, видео

Регистрация Запомнить меня
Войти через:  Facebook Google Twitter Vk Yandex Mail.ru

Siddharta - Ohm - таба, видео

Печатать
Просмотров: 93
http://www.siddharta.net

	 _______________________________________
	|					|
	| IZVAJALEC: ................ Siddharta |
	| PESEM: .......................... Ohm |
	| ALBUM: ..................... Petrolea |
	|_______________________________________|
	|					|
	|   Tabulatura				|
	|   Transkripcija: Aleš Godec (AliAs)	|
	|   email: alias.ag@email.si		|
	|   Domača stran: www.trzalica.com	|
	|_______________________________________|


LEGENDA ZNAKOV:
	M = MUTE - zaduši strune
	× = palm muted - narahlo zaduši strune
	~ = let ring - strune pusti zveneti
	¤ = harmonični ton



VERZ 1:

e|------------|
B|------------|
G|------------|  (čedalje glasneje)
D|-7----------|
A|------------|
E|------------|
   ¤

e|-----------------------------------------------------------------|
B|-----------------------------------------------------------------| _
G|-7-7-7-7-7-7-7-7-7-7-7-7-7-7-7-7-7-7-7-7-7-7-7-7-7-7-7-7-7-7-7-7-|  \
D|-0-0-0-0-0-0-0-0-0-0-0-0-0-0-0-0---------------------------------|   \
A|---------------------------------8-8-8-8-8-8-8-8-6-6-6-6-6-6-6-6-|    \
E|-----------------------------------------------------------------|     \
                                                                          |- 7x
e|-----------------------------------------------------------------|     /
B|-----------------------------------------------------------------|    /
G|-7-7-7-7-7-7-7-7-7-7-7-7-7-7-7-7-7-7-7-7-7-7-7-7-7-7-7-7-7-7-7-7-|   /
D|-0-0-0-0-0-0-0-0-0-0-0-0-0-0-0-0-----------------5-5-5-5-5-5-5-5-| _/
A|---------------------------------8-8-8-8-8-8-8-8-----------------|
E|-----------------------------------------------------------------|


	Z neba ne bo pritiska na to gorelo noč
	Povabljeni na travi se drevi snidemo
	Na strehi pločevine poplava sinergij
	V obliki evforije drznim se proži prst s pesti
	Vseeno kolk denarja
	Vseeno kera snov
	Noben ne opozarja 
	Razvrat je protokol
	Dlani se nam potijo 
	V vročini vre kraval
	Na vrhu zvezde moje 
	hladijo krop iz tal


REFREN 1:

	G5         A5         Bb5       F5     D5     C5 D5
	Ni dovolj, ni dovolj, ni dovolj disco minimaaaaaaaaal,
	G5        A5      Bb5       F5     D5     Eb5  F
	Ni dovolj pravih pizdarij, ni praviiiiiil
	G5        A5        Bb5         F5    D5
	Da ne bo, da ne bo, da ne bo stradal ilegaaaaal,
	G5         A5       Bb5    C5   D5
	Tu na meji ni kontrole in ni meriiiil

   G5      A5      Bb5     F5      D5            C5  D5
e|-----------------------------------------------------------------|
B|-----------------------------------------------------------------|
G|-------------------------101010107-7-7-7-7-7-7-5---7-7-7-7-7-7-7-|
D|-5-5-5-5-7-7-7-7-8-8-8-8-101010107-7-7-7-7-7-7-5---7-7-7-7-7-7-7-|
A|-5-5-5-5-7-7-7-7-8-8-8-8-8-8-8-8-5-5-5-5-5-5-5-3---5-5-5-5-5-5-5-|
E|-3-3-3-3-5-5-5-5-6-6-6-6-----------------------------------------|

   G5      A5      Bb5     F5      D5               Eb5   F
e|--------------------------------------------------------------|
B|--------------------------------------------------------------|
G|-------------------------101010107-7-7-7-7-7-7-7--8-8---1010--|
D|-5-5-5-5-7-7-7-7-8-8-8-8-101010107-7-7-7-7-7-7-7--8-8---1010--|
A|-5-5-5-5-7-7-7-7-8-8-8-8-8-8-8-8-5-5-5-5-5-5-5-5--6-6---8-8---|
E|-3-3-3-3-5-5-5-5-6-6-6-6--------------------------------------|
                                                   M    M     M

   G5      A5      Bb5     F5      D5
e|-----------------------------------------------------------------|
B|-----------------------------------------------------------------|
G|-------------------------101010107-7-7-7-7-7-7-7-7-7-7-7-7-7-7-7-|
D|-5-5-5-5-7-7-7-7-8-8-8-8-101010107-7-7-7-7-7-7-7-7-7-7-7-7-7-7-7-|
A|-5-5-5-5-7-7-7-7-8-8-8-8-8-8-8-8-5-5-5-5-3-3-3-3-----------------|
E|-3-3-3-3-5-5-5-5-6-6-6-6-------------------------6-6-6-6-5-5-5-5-|

   G5      A5      Bb5     C5      D5
e|--------------------------------------------------|
B|--------------------------------------------------|
G|-------------------------5-5-5-5-7----------------|
D|-5-5-5-5-7-7-7-7-8-8-8-8-5-5-5-5-7----------------|
A|-5-5-5-5-7-7-7-7-8-8-8-8-3-3-3-3-5----------------|
E|-3-3-3-3-5-5-5-5-6-6-6-6--------------------------|
                                    ~~~~~~~~~~~~~~~~


VERZ 2:

e|------------------------------------------------------------------|
B|------------------------------------------------------------------|
G|-7-7-7-7-7-7-7-7-7-7-7-7-7-7-7-7-11111111111111111313131313131313-|
D|-0-0-0-0-0-0-0-0-0-0-0-0-0-0-0-0-0-0-0-0-0-0-0-0-0-0-0-0-0-0-0-0--|
A|------------------------------------------------------------------|
E|------------------------------------------------------------------|

e|-----------------------------------------------------------------|
B|-----------------------------------------------------------------|
G|-7-7-7-7-7-7-7-7-7-7-7-7-7-7-7-7-7-7-7-7-7-7-7-7-7-7-7-7-7-7-7-7-|
D|-0-0-0-0-0-0-0-0-0-0-0-0-0-0-0-0---------------------------------|
A|---------------------------------8-8-8-8-8-8-8-8-6-6-6-6-6-6-6-6-|
E|-----------------------------------------------------------------|

e|-----------------------------------------------------------------|
B|-----------------------------------------------------------------|
G|-7-7-7-7-7-7-7-7-7-7-7-7-7-7-7-7-7-7-7-7-7-7-7-7-7-7-7-7-7-7-7-7-|
D|-0-0-0-0-0-0-0-0-0-0-0-0-0-0-0-0-----------------5-5-5-5-5-5-5-5-|
A|---------------------------------8-8-8-8-8-8-8-8-----------------|
E|-----------------------------------------------------------------|

e|-----------------------------------------------------------------|
B|-----------------------------------------------------------------|
G|-7-7-7-7-7-7-7-7-7-7-7-7-7-7-7-7-7-7-7-7-7-7-7-7-7-7-7-7-7-7-7-7-|
D|-0-0-0-0-0-0-0-0-0-0-0-0-0-0-0-0---------------------------------|
A|---------------------------------8-8-8-8-8-8-8-8-6-6-6-6-6-6-6-6-|
E|-----------------------------------------------------------------|

e|-----------------------------------------------------------------|
B|-----------------------------------------------------------------|
G|-7-7-7-7-7-9-9-9-101010121212141414171717171717171919191919191919|
D|-0-0-0-0-0-0-0-0-0-0-0-0-0-0-0-0-0-0-0-0-0-0-0-0-0-0-0-0-0-0-0-0-|
A|-----------------------------------------------------------------|
E|-----------------------------------------------------------------|


	Do zore krik dejanja
	Do zore fizika
	So krila čisto prava ni fantastika
	Dviguje sloj kisika
	Dviguje sile v nas
	Naj nam kdo ustavi čas!

	Objeta polt v idile kovtre se topi
	In nevede bele zenice oko dobi

e|---------------------------------|
B|---------------------------------|
G|---------------------------------|
D|---------------------------------|
A|---------------------------------|
E|-5-5-5-5-5-5-5-5-4-4-4-4-4-4-4-4-|
   × × × × × × × × × ×


REFREN 2:

	G5         A5         Bb5       F5     D5     C5 D5
	Ni dovolj, ni dovolj, ni dovolj disco minimaaaaaaaaal,
	G5        A5      Bb5       F5     D5     Eb5  F
	Ni dovolj pravih pizdarij, ni praviiiiiil
	G5        A5        Bb5         F5    D5
	Da ne bo, da ne bo, da ne bo stradal ilegaaaaal,
	G5         A5       Bb5    C5   D5
	Tu na meji ni kontrole in ni meriiiil

   G5      A5      Bb5     F5      D5            C5  D5
e|-----------------------------------------------------------------|
B|-----------------------------------------------------------------|
G|-------------------------101010107-7-7-7-7-7-7-5---7-7-7-7-7-7-7-|
D|-5-5-5-5-7-7-7-7-8-8-8-8-101010107-7-7-7-7-7-7-5---7-7-7-7-7-7-7-|
A|-5-5-5-5-7-7-7-7-8-8-8-8-8-8-8-8-5-5-5-5-5-5-5-3---5-5-5-5-5-5-5-|
E|-3-3-3-3-5-5-5-5-6-6-6-6-----------------------------------------|

   G5      A5      Bb5     F5      D5               Eb5   F
e|--------------------------------------------------------------|
B|--------------------------------------------------------------|
G|-------------------------101010107-7-7-7-7-7-7-7--8-8---1010--|
D|-5-5-5-5-7-7-7-7-8-8-8-8-101010107-7-7-7-7-7-7-7--8-8---1010--|
A|-5-5-5-5-7-7-7-7-8-8-8-8-8-8-8-8-5-5-5-5-5-5-5-5--6-6---8-8---|
E|-3-3-3-3-5-5-5-5-6-6-6-6--------------------------------------|
                                                   M    M     M

   G5      A5      Bb5     F5      D5
e|-----------------------------------------------------------------|
B|-----------------------------------------------------------------|
G|-------------------------101010107-7-7-7-7-7-7-7-7-7-7-7-7-7-7-7-|
D|-5-5-5-5-7-7-7-7-8-8-8-8-101010107-7-7-7-7-7-7-7-7-7-7-7-7-7-7-7-|
A|-5-5-5-5-7-7-7-7-8-8-8-8-8-8-8-8-5-5-5-5-3-3-3-3-----------------|
E|-3-3-3-3-5-5-5-5-6-6-6-6-------------------------6-6-6-6-5-5-5-5-|

   G5      A5      Bb5     C5      D5
e|--------------------------------------------------|
B|--------------------------------------------------|
G|-------------------------5-5-5-5-7----------------|
D|-5-5-5-5-7-7-7-7-8-8-8-8-5-5-5-5-7----------------|
A|-5-5-5-5-7-7-7-7-8-8-8-8-3-3-3-3-5----------------|
E|-3-3-3-3-5-5-5-5-6-6-6-6--------------------------|
                                    ~~~~~~~~~~~~~~~~


BRIDGE:

e|--------|
B|--------|
G|-6-6-6--|
D|-6-6-6--|
A|-5-5-5--|
E|--------|
         M

	Objeta polt v idile kovtre se topi

e|--------|
B|--------|
G|-6-6-6--|
D|-6-6-6--|
A|-5-5-5--|
E|--------|
         M

	In nevede bele zenice oko dobi

e|-----------------------------------------------------------------|
B|-----------------------------------------------------------------|
G|-6-6-6-----7-------10----------------------7-------10------------|
D|-6-6-6-7-7-7-10101010------8-------8---7-7-7-10101010------8-----|
A|-4-4-4-5-5-5-8-8-8-8-0-8-8-8-8-8-8-8-8-5-5-5-8-8-8-8-0-8-8-8-8-8-|
E|-----------------------6-6-6-6-6-6-6-6-----------------6-6-6-6-6-|
         × ×   × × ×   × × ×   × × ×   × × ×   × × ×   × × ×   × ×

	Objeta polt v idile kovtre se topi

e|-----------------------------------------------------------------------|
B|-----------------------------------------------------------------------|
G|-6-6-6-----7-------10--------------------------------------------------|
D|-6-6-6-7-7-7-10101010------8-------8---7-7-7-10101010------------------|
A|-4-4-4-5-5-5-8-8-8-8-0-8-8-8-8-8-8-8-8-5-5-5-8-8-8-8-0-8-8-8-8-8-8-8-8-|
E|-----------------------6-6-6-6-6-6-6-6-----------------6-6-6-6-6-6-6-6-|
         × ×   × × ×   × × ×   × × ×   

	In nevede bele zenice oko dobiiiii

   Dm                              D
e|--------------------------------------------------------------|
B|-6-6-6-6-6-6-6-6-6-6-6-6-6-6-6-6-7-7-7-7-7-7-7-7-7-7-7-7-7-7--|
G|-7-7-7-7-7-7-7-7-7-7-7-7-7-7-7-7-7-7-7-7-7-7-7-7-7-7-7-7-7-7--|
D|-0-0-0-0-0-0-0-0-0-0-0-0-0-0-0-0-0-0-0-0-0-0-0-0-0-0-0-0-0-0--|
A|--------------------------------------------------------------|
E|--------------------------------------------------------------|
                                                               M


REFREN 3:

	Dm                                     D
	Ni dovolj, ni dovolj, ni dovolj disco minimaaaaaaaaal,
	Dm                                 D
	Ni dovolj pravih pizdarij, ni praviiiiiil
	G5        A5        Bb5         F5    D5
	Da ne bo, da ne bo, da ne bo stradal ilegaaaaal,
	G5         A5       Bb5    C5   D5
	Tu na meji ni kontrole in ni meriiiil
	C#5
	Aaaaaaaaaaaaaaaa


   Dm                              D
e|-----------------------------------------------------------------|
B|-6-6-6-6-6-6-6-6-6-6-6-6-6-6-6-6-7-7-7-7-7-7-7-7-7-7-7-7-7-7-7-7-|
G|-7-7-7-7-7-7-7-7-7-7-7-7-7-7-7-7-7-7-7-7-7-7-7-7-7-7-7-7-7-7-7-7-| -- 2x
D|-0-0-0-0-0-0-0-0-0-0-0-0-0-0-0-0-0-0-0-0-0-0-0-0-0-0-0-0-0-0-0-0-|
A|-----------------------------------------------------------------|
E|-----------------------------------------------------------------|

   G5      A5      Bb5     F5      D5
e|-----------------------------------------------------------------|
B|-----------------------------------------------------------------|
G|-------------------------101010107-7-7-7-7-7-7-7-7-7-7-7-7-7-7-7-|
D|-5-5-5-5-7-7-7-7-8-8-8-8-101010107-7-7-7-7-7-7-7-7-7-7-7-7-7-7-7-|
A|-5-5-5-5-7-7-7-7-8-8-8-8-8-8-8-8-5-5-5-5-5-5-5-5-5-5-5-5-5-5-5-5-|
E|-3-3-3-3-5-5-5-5-6-6-6-6-----------------------------------------|

   G5      A5      Bb5     C5      D5
e|-----------------------------------------------------------------|
B|-----------------------------------------------------------------|
G|-------------------------5-5-5-5-7-7-7-7-7-7-7-7-7-7-7-7-7-7-7-7-|
D|-5-5-5-5-7-7-7-7-8-8-8-8-5-5-5-5-7-7-7-7-7-7-7-7-7-7-7-7-7-7-7-7-|
A|-5-5-5-5-7-7-7-7-8-8-8-8-3-3-3-3-5-5-5-5-5-5-5-5-5-5-5-5-5-5-5-5-|
E|-3-3-3-3-5-5-5-5-6-6-6-6-----------------------------------------|

   C#5
e|--------------------|
B|--------------------|
G|-66666666666666666--|
D|-66666666666666666--|
A|-44444444444444444--|
E|--------------------|
                    M


Добавлено: 27.02.2012
Другие материалы по этой песне:
  • Аккорды и текст

Страница создана 27.02.2012
http://primanota.ru/siddharta/ohm-chords.htm
Привет, Гость.
Предлагаем пройти революционный курс по гитаре.
Подарок от PrimaNota.Ru, забирай!