PrimaNota.ru - самый крупный в мире бесплатный архив песенных текстов, аккордов, табулатур и нот


Siddharta - Male Roke Voda - таба, видео

Регистрация Запомнить меня
Войти через:  Facebook Google Twitter Vk Yandex Mail.ru

Siddharta - Male Roke Voda - таба, видео

Печатать
Просмотров: 98
Band/Artist:Dan D & Siddharta
Song title:male roke/voda
Tabbed by:odem81
E-mail:odem81@gmail.com
Home page:www.trzalica.com

Verse 1:

   f#             C#               f#
Od kod so te male roke ki jih ne poznam
  f#	        C#        	f#
Zakaj vse zle besede nastale so tam
  h	         D
Izbrisano vse na silo
  A             E
ostaja le tisti vir
    h            D        C#       f#
Priznavajo le pribito kar nudi jim papir


   F#	c# 		g#   h   F#	c# 		g#     h
In pusti naj te nosi voda, aha   la, la, la, la, lalalalalal, aha
   F#	c# 		g#   h   F#	c# 		g#     h
In pusti naj te nosi voda, aha   la, la, la, la, lalalalalal, aha


BRIDGE 1:

   h f# A E G A E D


      F#
	Bolečino pijemo
      c#
	Skozi dno se vidi svet
      g#
	Lepota je skrita v nas
      h
	Vse navidezno je laž
      F#
	Sijaj in beda, drek zlato
      c#
	V žepih ni to kar imaš
      g#
	Pripada ti le to
      h                 F#  c#    g#     h
	Kar na srečo zaigraš...zaigraj  jeeee

  E      h         A
Zdaj ne vidi se vrhov za nas
f#	    D           E
vedno bolj oddaljen je svet
      h           f#
Ni besed ki bi stopile moč
A           D           E
ta pogled izda vse te lepote

     h            f#
A ne vemo, kaj je to
     E         D
ko izginjajo napake
h        f#    E  f#
In vse ostalo.


BRIDGE 2:
   a
e|----------|
B|----------|
G|----------|
D|----------|
A|-1/3-2----|
E|----------|


SOLO:

  (E  h  f#  a  )  4x
   a

e|------------------------10--10--9---9---7--7--9---9-----9----------------|
B|---7^ˇ-5--7^-----7^ˇ----12--12--10--10--9--9--10--10-------10--|
G|-------------------------------------------------------------------------|
D|-------------------------------------------------------------------------|
A|-------------------------------------------------------------------------|
E|-------------------------------------------------------------------------|

  -12p9--------9/12--12------15p12----------|
  -------10---10/13------13---------13------|
  ------------------------------------14----|
  ------------------------------------------|
  ------------------------------------------|
  ------------------------------------------|


e|-16--16---14--14---12--12---10--10--9---9---7--7--9---9-----9-|
B|-17--17---17--17---14--14---12--12--10--10--9--9--10--10------|
G|--------------------------------------------------------------|
D|--------------------------------------------------------------|
A|--------------------------------------------------------------|
E|--------------------------------------------------------------|

  -----12p9--------9/12--12------14p12------|
  -10--------10---10/13------13---------13--|
  ----------------------------------------14|
  ------------------------------------------|
  ------------------------------------------|
  ------------------------------------------|

e|------------------------10--10--9---9---7--7--9---9-----9----------------|
B|---7^ˇ-5--7^-----7^ˇ----12--12--10--10--9--9--10--10-------10--|
G|-------------------------------------------------------------------------|
D|-------------------------------------------------------------------------|
A|-------------------------------------------------------------------------|
E|-------------------------------------------------------------------------|

  -12p9--------9/12--12------14p12----------|
  -------10---10/13------13---------13------|
  ------------------------------------14----|
  ------------------------------------------|
  ------------------------------------------|
  ------------------------------------------|

e|-16--16---14--14---12--12---10--10--9---9---7--7--9---9------|
B|-17--17---17--17---14--14---12--12--10--10--9--9--10--10-----|
G|-------------------------------------------------------------|
D|-------------------------------------------------------------|
A|-------------------------------------------------------------|
E|-------------------------------------------------------------|
END: (Repeat)

        E	  h
Zdaj ne vidi se vrhov za nas
   f#   a
In pusti naj te nosi voda….

E

e|--------------------------|
B|--------------------------|
G|--4-4-2-2-1-1-------------|
D|--------------2-2---------|
A|--------------------------|
E|--------------------------|
Добавлено: 04.06.2012
Другие материалы по этой песне:
  • Аккорды и текст

Страница создана 04.06.2012
http://primanota.ru/siddharta/male-roke-voda-chords.htm
Привет, Гость.
Предлагаем пройти революционный курс по гитаре.
Подарок от PrimaNota.Ru, забирай!