PrimaNota.ru - самый крупный в мире бесплатный архив песенных текстов, аккордов, табулатур и нот


Siddharta - Domine - таба, видео

Регистрация Запомнить меня
Войти через:  Facebook Google Twitter Vk Yandex Mail.ru

Siddharta - Domine - таба, видео

Печатать
Просмотров: 93
Band/Artist:Siddharta
Song title:Domine
Tabbed by:Aleš Godec (AliAs)
E-mail:alias.ag@email.si
Home page:www.trzalica.com

Tuning:D G C F A D



Used Chords:
		Em  ---------------->   Dm
		Am  ---------------->   Gm
		C   ---------------->   A#
		Dm  ---------------->   Cm
		D   ---------------->   C
		G   ---------------->   F
		F   ---------------->   D#


Legend symbols:

	M = MUTE
	× = palm muted
	X = Muffled
	p = pul off
	h = hold on
	\ = slide down
	¤ = naravni harmoniki


****************************************************************************

INTRO:

D|---------------------------------------------------------------|
A|---------------------------------------------------------------|
F|---------------------------------------------------------------|  -- 3x
C|----------------------------5-7--------------------------5-4-0-|
G|-0--0-0-2-0-0-3-0-0-5-0-0-7-----0--0-0-2-0-0-3-0-0-5-0-0-------|
D|---------------------------------------------------------------|

D|------------------------------------------------|
A|------------------------------------------------|
F|------------------------------------------------|
C|----------------------------5-7-----------------|
G|-0--0-0-2-0-0-3-0-0-5-0-0-7-----0--0-0-2-0-0-3--|
D|------------------------------------------------|
                                                 M


VERSE 1:


      Am
	Se v rdeče mesto zlije vonj
	vonj po divjih vrtnicah
      Em
	Nezabito nam prodaja nos
	in tisto pod tem
      Am
	Nezavedno je pozabil na okolico
	in vse kar naj bi v njem bilo
      Em
	Predstava nečesa kar šele bo
	mu ubija misli na elemente grenkega

Rahel distortion:
   Am                                       Em
D|-------------------------------------------------------------------------|
A|------------------1---------------------------0---------------5----------|
F|------------------2---------------------------0--------------------------|
C|-2----------------2---------------------------2------------7-------------|
G|-0--------------------------------2h3p2---2------------------------------|
D|----------------------------------------3-0-0----------------------------|
                                                             ¤  ¤

   Am                                       Em
D|-----------------------0-------------------------------------------------|
A|------------------1----3----------------------0---------------5----------|
F|-------2----------2----2----------------------0------------7-------------|
C|-------2----------2----2----------------------2--------------------------|
G|-0--0-----------------------------2h3p2---2------------------------------|
D|----------------------------------------3-0-0----------------------------|
                                                             ¤  ¤            |>prehod v refren


CHOURS 1:

      F                         C
	Za balast podirajo domine
	                    F
	Sol na prelomu libida
	                              C
	Prepovedano meso je za bis bilo
	  Dm                        F
	No pa ni samo pa ni samo tako
	                       C
	Za ponos podirajo domine
	                    F
	Sila zamaje trdna tla
	          C   Dm
	Gola Mistika

                                                                            
D|-------------------------------0-----------0-------------------------- 
A|-------1-----------1-----------1-----------1-----------1-----------1-- 
F|-------2-----------2-----0--0--0-----0--0--0-----------2-----------2-- 
C|-3--3--3-----3--3--3-----2--2--------2--2--------3--3--3-----3--3--3-- 
G|-3--3--------3--3--------3--3--------3--3--------3--3--------3--3----- 
D|-1--1--------1--1--------------------------------1--1--------1--1----- 

  ---------0--------------X-X-X-X-|
  ---------1-----6--6--6--X-X-X-X-|
  ---0--0--0-----7--7--7--X-X-X-X-|
  ---2--2--------7--7-----X-X-X-X-|
  ---3--3--------5--5-----X-X-X-X-|
  ------------------------X-X-X-X-|

          
D|-------------------------------0-----------0--------------------------  
A|-------1-----------1-----------1-----------1-----------1-----------1--  
F|-------2-----------2-----0--0--0-----0--0--0-----------2-----------2--  
C|-3--3--3-----3--3--3-----2--2--------2--2--------3--3--3-----3--3--3--  
G|-3--3--------3--3--------3--3--------3--3--------3--3--------3--3-----  
D|-1--1--------1--1--------------------------------1--1--------1--1-----  


  ---------0----------------|
  ---------1-----6----------|
  ---0--0--0-----7----------|
  ---2--2--------7----------|
  ---3--3--------5----------|
  --------------------------|
VERSE 2:

Bas riff na kitari:
D|-------------------------------------------------------------------------|
A|-------------------------------------------------------------------------|
F|-------------------------------------------------------------------------|
C|----------------------------5-7--------------------------5-4-0-----------|
G|-0--0-0-2-0-0-3-0-0-5-0-0-7-----0--0-0-2-0-0-3-0-0-5-0-0-----------------|
D|-------------------------------------------------------------------------|

D|-------------------------------------------------------------------------|
A|-------------------------------------------------------------------------|
F|-------------------------------------------------------------------------|
C|----------------------------5-7------------------------------------------|
G|-0--0-0-2-0-0-3-0-0-5-0-0-7-----0-10-12-0-12-14-0-14-15-0-12-14-0-10-12--|
D|-------------------------------------------------------------------------|


      Am
	Svetloba z jutra pere mrak
	             Em
	mestu prevetri korak
      D
	V novi dimenziji trga vest
	             Am
	zasajeno v greh

      Am
	Srce premakne z leve nizko kar se da
	      Em
	Topo zaboli ob udaru v tla
      D
	Predstava tistega kar je bilo
	     Am
	Polomila je moža in lepote ki ima


   Am                    Em                    D
D|----------------------------0--------------------------------------------|
A|-------------------------------0------7-7--------------------------------|
F|-------------------------------------------------------------------------|
C|------------------------------------------7--7-7--5----------7-----------|
G|-7--7-7--5---------------------------------------------7-----------------|
D|-------------------3-2-0-------------------------------------------------|
****************************************************************************


CHOURS 2:

      F                         C
	Za balast podirajo domine
	                    F
	Sol na prelomu libida
	                              C
	Prepovedano meso je za bis bilo
	  Dm                        F
	No pa ni samo pa ni samo tako
	                       C
	Za ponos podirajo domine
	                    F
	Sila zamaje trdna tla
	          C         Dm     Em
	Gola Mistika, gola mistikaaaaa


D|-------------------------------0-----------0---------------------------- 
A|-------1-----------1-----------1-----------1-----------1-----------1---- 
F|-------2-----------2-----0--0--0-----0--0--0-----------2-----------2---- 
C|-3--3--3-----3--3--3-----2--2--------2--2--------3--3--3-----3--3--3---- 
G|-3--3--------3--3--------3--3--------3--3--------3--3--------3--3------- 
D|-1--1--------1--1--------------------------------1--1--------1--1------- 
 
  -------0--------------X-X-X-X-|
  -------1-----6--6--6--X-X-X-X-|
  -0--0--0-----7--7--7--X-X-X-X-|
  -2--2--------7--7-----X-X-X-X-|
  -3--3--------5--5-----X-X-X-X-|
  ----------------------X-X-X-X-|
  

D|-------------------------------0-----------0---------------------------- 
A|-------1-----------1-----------1-----------1-----------1-----------1---- 
F|-------2-----------2-----0--0--0-----0--0--0-----------2-----------2---- 
C|-3--3--3-----3--3--3-----2--2--------2--2--------3--3--3-----3--3--3---- 
G|-3--3--------3--3--------3--3--------3--3--------3--3--------3--3------- 
D|-1--1--------1--1--------------------------------1--1--------1--1------- 

  -------0-------------0--------|
  -------1-----6-------0--------|
  -0--0--0-----7-------0--------|
  -2--2--------7-------2--------|
  -3--3--------5-------2--------|
  ---------------------0--------|

OUTRO:

D|-------------------------------------------------------------|
A|-------------------------------------------------------------|
F|-------------------------------------------------------------|
C|----------------------------5-7------------------------------|
G|-0--0-0-2-0-0-3-0-0-5-0-0-7-----0--0-0-2-0-0-3-3-3-3-3-3-3-3-|
D|-------------------------------------------------------------|
                                               

D|--------------------------------------------------------------|
A|--------------------------------------------------------------|
F|-----------------------------------------------------------5--|
C|----------------------------5-7------------------------5-7----|
G|-0--0-0-2-0-0-3-0-0-5-0-0-7-----0--0-0-2-0-0-3-0-0-5-7--------|
D|--------------------------------------------------------------|

D|---------------------------------------------------------------|
A|---------------------------------------------------------------|
F|---------------------------------------------------------------|
C|----------------------------5-7--------------------------5-4-0-|
G|-0--0-0-2-0-0-3-0-0-5-0-0-7-----0--0-0-2-0-0-3-0-0-5-0-0-------|
D|---------------------------------------------------------------|

D|-------------------------------------------------------------------------|
A|-------------------------------------------------------------------------|
F|-------------------------------------------------------------------------|
C|----------------------------5-7------------------------------------------|
G|-0--0-0-2-0-0-3-0-0-5-0-0-7-----0-10-12-0-12-14-0-14-15-0-15-17-0-17-19--|
D|-------------------------------------------------------------------------|

D|---------------------------------------------------------------------- 
A|---------------------------------------------------------------------- 
F|---------------------------------------------------------------------- 
C|---------------------------------------------------------------------- 
G|-20-20-20-20-0-0-0-20--20-20-20-0-0-0-0-7-7-7-7-0-0-0-7--7-7-7-0-0-0-0 
D|---------------------------------------------------------------------- 

  ---------------------------------------------------------------------|
  ---------------------------------------------------------------------|
  ---------------------------------------------------------------------|
  ---------------------------------------------------------------------|
  -5-5-5-5-------5--5-5-5----------------------------------------------|
  ---------3-3-3----------3-3-3-3-5-5-5-5-7-7-7-8--8-8-8-10-10-10-10---| 

D|---------------------------------------------------------------------- 
A|---------------------------------------------------------------------- 
F|---------------------------------------------------------------------- 
C|---------------------------------------------------------------------- 
G|-8-8-8-8-0-0-0-8--8-8-8-0-0-0-0-7-7-7-7-0-0-0-7--7-7-7-0-0-0-0-5-5-5-5 
D|---------------------------------------------------------------------- 

  ---------------------------------------------------------------------|
  ---------------------------------------------------------------------|
  ---------------------------------------------------------------------|
  ---------------------------------------------------------------------|
  -------5--5-5-5---------0-12-0-12-0-12-12-0-12-12-12-----------------|
  -3-3-3----------3-3-3-3----------------------------------------------|

  (F)   Am   G    Am   F    Am   G    Am   F
D|-1----0----3----0----1----0----3----0----1----|
A|-1----1----0----1----1----1----0----1----1----|
F|-2----2----0----2----2----2----0----2----2----|
C|-3----2----0----2----3----2----0----2----3----|
G|----------------------------------------------|
D|----------------------------------------------|

D|------12-------8\7--------8----------13------12--------8\7--------|
A|------------------------------------------------------------------|
F|------------------------------------------------------------------|
C|------------------------------------------------------------------|
G|------------------------------------------------------------------|
D|------------------------------------------------------------------|

Добавлено: 30.06.2012
Другие материалы по этой песне:
  • Аккорды и текст

Страница создана 30.06.2012
http://primanota.ru/siddharta/domine-chords.htm
Привет, Гость.
Предлагаем пройти революционный курс по гитаре.
Подарок от PrimaNota.Ru, забирай!