PrimaNota.ru - самый крупный в мире бесплатный архив песенных текстов, аккордов, табулатур и нот


Siddharta - Disco Deluxe - таба, видео

Регистрация Запомнить меня
Войти через:  Facebook Google Twitter Vk Yandex Mail.ru

Siddharta - Disco Deluxe - таба, видео

Печатать
Просмотров: 93
	 _______________________________________
	|					|
	| IZVAJALEC: ................ Siddharta |
	| PESEM: ................. Disco deluxe |
	| ALBUM: ..................... Petrolea |
	|_______________________________________|
	|					|
	|   Besedilo z akordi in tabulatura	|
	|   Transkripcija: Aleš Godec (AliAs)	|
	|   email: alias.ag@email.si		|
	|   Domaèa stran: www.trzalica.com	|
	|_______________________________________|


LEGENDA ZNAKOV:
	M = MUTE - zaduši strune
	X = Z levo roko zaduši struno


INTRO:

   G#m     F#      E       F#      G#m
e|-----------------------------------------------------------------|
B|-----------------------------------------------------------------|
G|-----------------------------------------------------------------|  -- 4x
D|-----------------------------------------------------------------|
A|---6---6---4---4---2---2---4---4---6---6---6---6---6-7---7---6---|
E|-4---4---2---2---0---0---2---2---4---4---4---4---4-----4---4---4-|


VERZ 1:

     G#m      F#       E       F#   G#m
	Ni valov ni èeri ko sirene zapojo
	      F#      E       F#   G#m
	In v suhem potoku utopijo njo
     C#m       B A        B     C#m
	In na maaaj preseli se zima naj
     G#m       F#      E      F#     G#m
	Vse tako ko pero v rokah je lutk.

   G#m     F#      E       F#      G#m
e|-----------------------------------------------------------------|
B|-----------------------------------------------------------------|
G|-----------------------------------------------------------------| -- 2x
D|-----------------------------------------------------------------|
A|---6---6---4---4---2---2---4---4---6---6---6---6---6-7---7---6---|
E|-4---4---2---2---0---0---2---2---4---4---4---4---4-----4---4---4-|

   C#m     B       A       B       C#m
e|-----------------------------------------------------------------|
B|-----------------------------------------------------------------|
G|-----------------------------------------------------------------|
D|---6---6---4---4---2---2---4---4---6---6---6---6---6-7---7---6---|
A|-4---4---2---2---0---0---2---2---4---4---4---4---4-----4---4---4-|
E|-----------------------------------------------------------------|

   G#m     F#      E       F#      G#m
e|-----------------------------------------------------------------|
B|-----------------------------------------------------------------|
G|-----------------------------------------------------------------|
D|-----------------------------------------------------------------|
A|---6---6---4---4---2---2---4---4---6---6---6---6---6-7---7---6---|
E|-4---4---2---2---0---0---2---2---4---4---4---4---4-----4---4---4-|


REFREN 1:
V refrenu igramo power akorde, kot prikazuje spodnje besedilo.
Kjer je G#m oznaèen z zvezdico (G#m*), druga kitara (Primož) igra po
spodaj napisani tabulaturi, Tomi pa igra power akord.


	C#m         B      F#       E       F#   G#m
	Ni veliko vran za postrelit  za mir in idilo
	C#m G#m      F#       E              G#m*
	Dokler smo brez skrbi  raj je v naraaaaviiii
	C#m      B     F#       E       F#    G#m
	Ni vsem dan poseben gen  ki zavraèa gnilo
	C#m G#m      F#       E              G#m*     G#m*
	Dokler smo brez skrbi  raj je v naraaaaviiii


   G#m*
e|---------------------------------|
B|---------------------------------|
G|---------------------------------|
D|---------------------------------|
A|---6---6---6---6---6-7---7---6---|
E|-4---4---4---4---4-----4---4---4-|

   C#m  B   F#   E   G#m
e|-----------------------|
B|-----------------------|
G|-6----4----------------|  --> Prijemi power akordov
D|-6----4---4----2---6---|
A|-4----2---4----2---6---|
E|----------2----0---4---|


VERZ 2:

     G#m      F#       E        F#    G#m
	V imenitnem vesolju gradi se nov hotel
	        F#       E       F#    G#m
	Lep pogled na zaliv v zeleno ovit
     C#m     B  A       B      C#m
	Obsijaaaan in imun na dinamit
     G#m      F#     E          F#  G#m
	Priporoèam vsem ki so pregorel

   G#m     F#      E       F#      G#m
e|-----------------------------------------------------------------|
B|-----------------------------------------------------------------|
G|-----------------------------------------------------------------| -- 2x
D|-----------------------------------------------------------------|
A|---6---6---4---4---2---2---4---4---6---6---6---6---6-7---7---6---|
E|-4---4---2---2---0---0---2---2---4---4---4---4---4-----4---4---4-|

   C#m     B       A       B       C#m
e|-----------------------------------------------------------------|
B|-----------------------------------------------------------------|
G|-----------------------------------------------------------------|
D|---6---6---4---4---2---2---4---4---6---6---6---6---6-7---7---6---|
A|-4---4---2---2---0---0---2---2---4---4---4---4---4-----4---4---4-|
E|-----------------------------------------------------------------|

   G#m     F#      E       F#      G#m
e|-----------------------------------------------------------------|
B|-----------------------------------------------------------------|
G|-----------------------------------------------------------------|
D|-----------------------------------------------------------------|
A|---6---6---4---4---2---2---4---4---6---6---6---6---6-7---7---6---|
E|-4---4---2---2---0---0---2---2---4---4---4---4---4-----4---4---4-|


REFREN 2:
V refrenu igramo power akorde, kot prikazuje spodnje besedilo.
Kjer je G#m oznaèen z zvezdico (G#m*), druga kitara (Primož) igra po
spodaj napisani tabulaturi, Tomi pa igra power akord.


	C#m         B      F#       E       F#   G#m
	Ni veliko vran za postrelit  za mir in idilo
	C#m G#m      F#       E              G#m*
	Dokler smo brez skrbi  raj je v naraaaaviiii
	C#m      B     F#       E       F#    G#m
	Ni vsem dan poseben gen  ki zavraèa gnilo
	C#m G#m      F#       E              G#m*
	Dokler smo brez skrbi  raj je v naraaaaviiii


   G#m*
e|---------------------------------|
B|---------------------------------|
G|---------------------------------|
D|---------------------------------|
A|---6---6---6---6---6-7---7---6---|
E|-4---4---4---4---4-----4---4---4-|

   C#m  B   F#   E   G#m
e|-----------------------|
B|-----------------------|
G|-6----4----------------|  --> power akords
D|-6----4---4----2---6---|
A|-4----2---4----2---6---|
E|----------2----0---4---|


BRIDGE:

   C#m  B    F#m  E    A    F#   G#m
e|-4----2----2----0----0----2----4---|
B|-5----4----2----0----2----2----4---|
G|-6----4----2----1----2----3----4---|    akords
D|-6----4----4----2----2----4----6---|
A|-4----2----4----2----0----4----6---|
E|-----------2----0---------2----4---|

     C#m             B                F#m            E
	Gledam tvoje ostre besede in peno, ki z roba ust drsi
      A              B           F#
	Vidim tvoje misli in pohlep
     C#m             B                 F#m             G#m
	Ne verjamem da sem govoril v steno, ki prav tako bledi
      A            B             F#
	Zalomilo se bo slej ko prej


Bass solo:  C#m  B  F#m  E  A  B  F#
	   C#m  B  F#m  G#m  A  B  F#


     C#m                              F#m            E
	Gledam tvoje ostre besede in peno, ki z roba ust drsi
      A              B           F#   G#
	Vidim tvoje misli in pohlep
     C#m             B                 F#m             G#m
	Ne verjamem da sem govoril v steno, ki prav tako bledi
      A            B             F#   G#
	Zalomilo se bo slej ko preeeeeeeej

   C#m       F#m          E          A           B           F#          G#
e|-------------------------------------------------------------------------------------|
B|-------------------------------------------------------------------------------------|
G|-------------------X-X---------X-X---------X-X---------X-X---------------------------|
D|-6---------4--4-4--X-X-2--2-2--X-X-7--7-7--X-X-4--4-4--X-X-4--4-4--4-4-6-6-6-6-6-6-6-|
A|-4---------4--4-4--X-X-2--2-2--X-X-7--7-7--X-X-2--2-2--X-X-4--4-4--4-4-6-6-6-6-6-6-6-|
E|-4---------2--2-2--X-X-0--0-0--X-X-5--5-5--X-X-2--2-2--X-X-2--2-2--2-2-4-4-4-4-4-4-4-|
     M         M           M           M           M           M    M

   C#m         B            F#m         G#          A           B           F#          G#
e|----------------------------------------------------------------------------------------------------|
B|----------------------------------------------------------------------------------------------------|
G|---------X-X---------X-X----------X-X---------X-X---------X-X---------X-X---------------------------|
D|-6--6-6--X-X-4--4-4--X-X--4--4-4--X-X-6--6-6--X-X-7--7-7--X-X-4--4-4--X-X-4--4-4--4-4-6-6-6-6-6-6-6-|
A|-4--4-4--X-X-2--2-2--X-X--4--4-4--X-X-6--6-6--X-X-7--7-7--X-X-2--2-2--X-X-4--4-4--4-4-6-6-6-6-6-6-6-|
E|-4--4-4--X-X-2--2-2--X-X--2--2-2--X-X-4--4-4--X-X-5--5-5--X-X-2--2-2--X-X-2--2-2--2-2-4-4-4-4-4-4-4-|
     M           M            M           M           M           M           M


REFREN 3:
V refrenu igramo power akorde, kot prikazuje spodnje besedilo.
Kjer je G#m oznaèen z zvezdico (G#m*), druga kitara (Primož) igra po
spodaj napisani tabulaturi, Tomi pa igra power akord.


	C#m         B      F#       E       F#   G#m
	Ni veliko vran za postrelit  za mir in idilo
	C#m G#m      F#       E              G#m*
	Dokler smo brez skrbi  raj je v naraaaaviiii
	C#m      B     F#       E       F#    G#m
	Ni vsem dan poseben gen  ki zavraèa gnilo
	C#m G#m      F#       E              G#m*     G#m*
	Dokler smo brez skrbi  raj je v naraaaaviiii


   G#m*
e|---------------------------------|
B|---------------------------------|
G|---------------------------------|
D|---------------------------------|
A|---6---6---6---6---6-7---7---6---|
E|-4---4---4---4---4-----4---4---4-|

   C#m  B   F#   E   G#m
e|-----------------------|
B|-----------------------|
G|-6----4----------------|  --> power akords
D|-6----4---4----2---6---|
A|-4----2---4----2---6---|
E|----------2----0---4---|
Добавлено: 16.03.2012
Другие материалы по этой песне:
  • Аккорды и текст

Страница создана 16.03.2012
http://primanota.ru/siddharta/disco-deluxe-chords.htm
Привет, Гость.
Предлагаем пройти революционный курс по гитаре.
Подарок от PrimaNota.Ru, забирай!