PrimaNota.ru - самый крупный в мире бесплатный архив песенных текстов, аккордов, табулатур и нот


Sid - Caramel - текст песни, таба, видео

Регистрация Запомнить меня
Войти через:  Facebook Google Twitter Vk Yandex Mail.ru

Sid - Caramel - текст песни, таба, видео

Печатать
Просмотров: 174
Artist:  SID
Song:    Caramel

Guitar Afination:  EBGDAE

INTRO:    F  Am  Bb  C  (x2)

BASS:  (Until beginning)


G--------------------------------------------------|
D--10-8-8-7-8-7---7-8-7---------------10-----------|
A-----------------------8--8\10-10-8-10-10-8-8-8---|
E--------------------------------------------------|


GUITAR: (0:21----)

E------------13----12----13-------12---------------|
B--10-10-13-13----13----13----13-13-13-------------|
G--------------------------------------------------|
D--------------------------------------------------|
A--------------------------------------------------|
E--------------------------------------------------|


F                Am          Bb           C
Iroaseta jeans mitai na anna fuu ga risou da ne sou omowanai?
F                   Am             Bb    C       F
Kawaranaku tsudzuku kimochi tashikametai soba ni ite hoshii

Gm              Am  Bb            C
Boku de yokatta to iwasetai tada sore dake


            D                  F#m
Te wo tsunaide yukou love tsunagi ga ii

G                     A
Zutto zutto amai kata ni tokeyou

   G                  Gm
Ne oudanhodou irodoru marble no gum no ato ga

A            F#
kirei fui ni miseru


          D              F#m
shoujo no kao wo hitorijime shite

    G        A            D
Kuyashii kara kiss wo shiyou


F  Am   Bb  C


F                  Am                Bb       C     F
Futari hohaba mo himitsu no kazu mo soroete aruite yukou

Gm              Am  Bb                  C
Nagai me de mitara  kare yori mo jishin wa aru

         D                 F#m
Sayonara no mae no kyuutenkai ni wa

G                   A
Jibun de mo homete agetai kurai da yo

G                          Gm
Tankyori sou no toki ni mo flying shita koto nai

A               F#
Dakedo ima wa chigau

         D                 F#m
Kimi to iru to ne hajimete darake

   G      A           Bm
Okaeshi no kiss wo shiyou


---Solo---

    D  G  A

Bm  D  G  A


---Instrument muting part---

Kimi ni hisonda kareno kizuato

Iyasu tame nara nan datte dekiru hazu sa

Kotoba ni sureba yasuku naru sonna koto wakatteru

Dakedo tsutaetakute


        Bm              D
waratta kao no namida fukuro ga
   G       A
Ureshikute  (kiss wo shiyou)
            D                 F#m
Te wo tsunaide ikou love tsunagi ga ii
G                     A
Zutto zutto amai kata ni tokeyou
   G                   Gm
Ne  oudanhodou irodoru marble no gum no ato ga
A            F#
kirei fui ni miseru
          D              F#m
shoujo no kao ga chikazuite kite
    G       A            D
Hajimete no   kiss wo shiyou


F  Am  Bb  C

F  Am  Bb  C

F  Am  Bb  C....


BASs: The same

GUITAR:  (4:24....)

E-------13--------12--------13-------12------------|
B---13-13-----13-13-----13-13----13-13-------------|
G--------------------------------------------------|
D--------------------------------------------------|
A--------------------------------------------------|
E--------------------------------------------------|

E-------13----------12---------13---------12---------13------12-----|
B--13-13--13----13-13-13---13-13-13---13-13-13---13-13-13---13--13--|
G-------------------------------------------------------------------|
D-------------------------------------------------------------------|
A-------------------------------------------------------------------|
E-------------------------------------------------------------------|


And...this is it!!!

Have fun playing this song.

Greetings!!!

Any question, request, correction please to:


joshel_999@hotmail.com

fjoshel@yahoo.com


SID (シド, Shido) no web:

http://www.sid-web.info/
Добавлено: 03.03.2012
Другие материалы по этой песне:
  • Аккорды и текст

Страница создана 03.03.2012
http://primanota.ru/sid/caramel-chords.htm
Привет, Гость.
Предлагаем пройти революционный курс по гитаре.
Подарок от PrimaNota.Ru, забирай!