PrimaNota.ru - самый крупный в мире бесплатный архив песенных текстов, аккордов, табулатур и нот


Sick Puppies - Pretender - таба, видео

Регистрация Запомнить меня
Войти через:  Facebook Google Twitter Vk Yandex Mail.ru

Sick Puppies - Pretender - таба, видео

Печатать
Просмотров: 246
This is my first tab so it may have a few flaws. The song is tuned in Drop C is played 
(in this version) on an acoustic guitar. If you liked this one I will submit a version 
that can be played in standard tuning :D

- Colin Allen
------------------------------------------------------
Intro:

D-----------------------|
A-----------------------|
F-----------------------|
C----0------0---0------0|
G-----------------------|(x2)
C--0---00-----0--0--00--|

First Verse

I live with the life that i've made-

D-----------------------|
A-----------------------|
F-----------------------|
C----0------0---0------0|
G-----------------------|(x2)
C--0---00-----0--0--00--|

D------------------------|
A------------------------|
F------------------------|
C-------10---------10----|
G------------------------|
C--101010----10101010--10|

D------------------------|
A------------------------|
F------------------------|
C-------9-----------9----|
G------------------------|
C--9999--------9999-----9|

(After the riff on the ninth fret, repeat the intro)

Second Verse (X2):

My confidence pours in this glass-

D------------------------|
A------------------------|
F------------------------|
C-0-x-0-x-0-x-00---------|
G-0-x-0-x-0-x-00---------|
C-0-x-0-x-0-x-00-00-10-12|(x2)


D------------------------|
A------------------------|
F------------------------|
C-10-x-10-x-10-x-1010----|
G-10-x-10-x-10-x-1010----|
C-10-x-10-x-10-x-1010----|


D------------------------|
A------------------------|
F------------------------|
C-9-x-9-x-9-x-99---------|
G-9-x-9-x-9-x-99---------|
C-9-x-9-x-9-x-99---------|

D------------------------|
A------------------------|
F------------------------|
C-0-x-0-x-0-x-00000000---|
G-0-x-0-x-0-x-00000000---|
C-0-x-0-x-0-x-00000000---|

Chorus:

Oooooh, I am the pretender-

D------------------|
A------------------|
F------------------|
C-10101010-9999999-|
G-10101010-9999999-|
C-10101010-9999999-|

D--------------------------|
A--------------------------|
F--------------------------|
C-0-x-00-x-12-x-00-x-0-x-0-|
G-0-x-00-x-12-x-00-x-0-x-0-|
C-0-x-00-x-12-x-00-x-0-x-0-|

(Post Chorus Riff) (x2)

D--------------------------|
A--------------------------|
F--------------------------|
C--------------------------|
G--------------------------|
C-12-11-10--7-6-5-7-6-000--|

D---------------------------|
A---------------------------|
F---------------------------|
C---------------------------|
G---------------------------|
C-12-11-10--7-6-5-7-6-121212|

Then just repeat the first verse riff to what sounds right to you. I don't know the 
second chorus's riff but you can just play the chords on the 10th, 9th and open frets to 
however you want and it should sound right.
Добавлено: 31.07.2013
Другие материалы по этой песне:
  • Аккорды и текст

Страница создана 31.07.2013
http://primanota.ru/sick-puppies/pretender-chords.htm
Привет, Гость.
Предлагаем пройти революционный курс по гитаре.
Подарок от PrimaNota.Ru, забирай!